ISO-10303-21;
HEADER;
FILE_DESCRIPTION (( 'STEP AP214' ),
    '1' );
FILE_NAME ('093wu302v.STEP',
    '2014-08-20T13:50:44',
    ( '' ),
    ( '' ),
    'SwSTEP 2.0',
    'SolidWorks 2014',
    '' );
FILE_SCHEMA (( 'AUTOMOTIVE_DESIGN' ));
ENDSEC;

DATA;
#1 = EDGE_LOOP ( 'NONE', ( #307, #27, #23, #197 ) ) ;
#2 =( LENGTH_UNIT ( ) NAMED_UNIT ( * ) SI_UNIT ( .MILLI., .METRE. ) );
#3 =( NAMED_UNIT ( * ) PLANE_ANGLE_UNIT ( ) SI_UNIT ( $, .RADIAN. ) );
#4 = DIRECTION ( 'NONE',  ( 0.0000000000000000000, 0.0000000000000000000, -1.000000000000000000 ) ) ;
#5 = VECTOR ( 'NONE', #350, 1000.000000000000000 ) ;
#6 = CARTESIAN_POINT ( 'NONE',  ( 3.000000000000000000, 30.00000000000000000, 15.00000000000000000 ) ) ;
#7 = FILL_AREA_STYLE_COLOUR ( '', #243 ) ;
#8 = FILL_AREA_STYLE ('',( #7 ) ) ;
#9 = DIRECTION ( 'NONE',  ( 1.000000000000000000, 0.0000000000000000000, 0.0000000000000000000 ) ) ;
#10 = CARTESIAN_POINT ( 'NONE',  ( 0.0000000000000000000, 0.0000000000000000000, 15.00000000000000000 ) ) ;
#11 = DIRECTION ( 'NONE',  ( -1.000000000000000000, -0.0000000000000000000, -0.0000000000000000000 ) ) ;
#12 = CIRCLE ( 'NONE', #134, 3.400000000000033200 ) ;
#13 = CIRCLE ( 'NONE', #133, 6.399999999999999500 ) ;
#14 = LINE ( 'NONE', #135, #45 ) ;
#15 = CIRCLE ( 'NONE', #78, 3.400000000000033200 ) ;
#16 = CARTESIAN_POINT ( 'NONE',  ( 0.0000000000000000000, 0.0000000000000000000, 15.00000000000000000 ) ) ;
#17 = LINE ( 'NONE', #26, #5 ) ;
#18 = MANIFOLD_SOLID_BREP ( 'Schnitt-Rotation2', #181 ) ;
#19 = ORIENTED_EDGE ( 'NONE', *, *, #367, .T. ) ;
#20 = ORIENTED_EDGE ( 'NONE', *, *, #330, .F. ) ;
#21 = ORIENTED_EDGE ( 'NONE', *, *, #375, .T. ) ;
#22 = CARTESIAN_POINT ( 'NONE',  ( 8.599999999999999600, 3.000000000000000000, 0.0000000000000000000 ) ) ;
#23 = ORIENTED_EDGE ( 'NONE', *, *, #340, .F. ) ;
#24 = CARTESIAN_POINT ( 'NONE',  ( 0.0000000000000000000, 15.00000000000000000, 3.399999999999986100 ) ) ;
#25 = CARTESIAN_POINT ( 'NONE',  ( 0.0000000000000000000, 0.0000000000000000000, -15.00000000000000000 ) ) ;
#26 = CARTESIAN_POINT ( 'NONE',  ( 3.000000000000000000, 30.00000000000000000, -15.00000000000000000 ) ) ;
#27 = ORIENTED_EDGE ( 'NONE', *, *, #257, .F. ) ;
#28 = VERTEX_POINT ( 'NONE', #29 ) ;
#29 = CARTESIAN_POINT ( 'NONE',  ( 0.0000000000000000000, 15.00000000000000000, -3.399999999999986100 ) ) ;
#30 = VERTEX_POINT ( 'NONE', #24 ) ;
#31 = VERTEX_POINT ( 'NONE', #38 ) ;
#32 = VECTOR ( 'NONE', #63, 1000.000000000000000 ) ;
#33 = DIRECTION ( 'NONE',  ( -1.000000000000000000, -1.284980352575412700E-016, 0.0000000000000000000 ) ) ;
#34 = ORIENTED_EDGE ( 'NONE', *, *, #361, .F. ) ;
#35 =( NAMED_UNIT ( * ) SI_UNIT ( $, .STERADIAN. ) SOLID_ANGLE_UNIT ( ) );
#36 = EDGE_LOOP ( 'NONE', ( #255, #212, #204, #196 ) ) ;
#37 = EDGE_LOOP ( 'NONE', ( #157, #313, #179, #303 ) ) ;
#38 = CARTESIAN_POINT ( 'NONE',  ( 0.0000000000000000000, 30.00000000000000000, -15.00000000000000000 ) ) ;
#39 = VERTEX_POINT ( 'NONE', #40 ) ;
#40 = CARTESIAN_POINT ( 'NONE',  ( 30.00000000000000000, 0.0000000000000000000, 15.00000000000000000 ) ) ;
#41 = CARTESIAN_POINT ( 'NONE',  ( 0.0000000000000000000, 30.00000000000000000, 15.00000000000000000 ) ) ;
#42 = DIRECTION ( 'NONE',  ( -1.000000000000000000, -2.710505431213760600E-016, 0.0000000000000000000 ) ) ;
#43 = CARTESIAN_POINT ( 'NONE',  ( 15.00000000000000200, 3.000000000000001800, 0.0000000000000000000 ) ) ;
#44 = DIRECTION ( 'NONE',  ( -2.948295997280554600E-016, 1.000000000000000000, -0.0000000000000000000 ) ) ;
#45 = VECTOR ( 'NONE', #130, 1000.000000000000000 ) ;
#46 = SURFACE_SIDE_STYLE ('',( #379 ) ) ;
#47 = VERTEX_POINT ( 'NONE', #25 ) ;
#48 = SURFACE_STYLE_USAGE ( .BOTH. , #46 ) ;
#49 = EDGE_LOOP ( 'NONE', ( #249, #317, #302, #296 ) ) ;
#50 = LINE ( 'NONE', #393, #66 ) ;
#51 = CARTESIAN_POINT ( 'NONE',  ( 3.000000000000000000, 30.00000000000000000, 15.00000000000000000 ) ) ;
#52 = PLANE ( 'NONE',  #74 ) ;
#53 = DIRECTION ( 'NONE',  ( 0.0000000000000000000, 0.0000000000000000000, 1.000000000000000000 ) ) ;
#54 = CARTESIAN_POINT ( 'NONE',  ( 15.00000000000000400, 8.673617379884035500E-016, 0.0000000000000000000 ) ) ;
#55 = CARTESIAN_POINT ( 'NONE',  ( 30.00000000000000000, 0.0000000000000000000, 15.00000000000000000 ) ) ;
#56 = VERTEX_POINT ( 'NONE', #41 ) ;
#57 = CARTESIAN_POINT ( 'NONE',  ( 0.0000000000000000000, 0.0000000000000000000, -15.00000000000000000 ) ) ;
#58 = VERTEX_POINT ( 'NONE', #22 ) ;
#59 = DIRECTION ( 'NONE',  ( -0.0000000000000000000, -0.0000000000000000000, -1.000000000000000000 ) ) ;
#60 = ORIENTED_EDGE ( 'NONE', *, *, #340, .T. ) ;
#61 = VECTOR ( 'NONE', #119, 999.9999999999998900 ) ;
#62 = DIRECTION ( 'NONE',  ( 0.0000000000000000000, 1.000000000000000000, 0.0000000000000000000 ) ) ;
#63 = DIRECTION ( 'NONE',  ( 1.000000000000000000, 0.0000000000000000000, 0.0000000000000000000 ) ) ;
#64 = LINE ( 'NONE', #132, #32 ) ;
#65 = FILL_AREA_STYLE ('',( #86 ) ) ;
#66 = VECTOR ( 'NONE', #401, 1000.000000000000000 ) ;
#67 = AXIS2_PLACEMENT_3D ( 'NONE', #390, #159, #380 ) ;
#68 =( NAMED_UNIT ( * ) SI_UNIT ( $, .STERADIAN. ) SOLID_ANGLE_UNIT ( ) );
#69 =( LENGTH_UNIT ( ) NAMED_UNIT ( * ) SI_UNIT ( .MILLI., .METRE. ) );
#70 = DIRECTION ( 'NONE',  ( 0.0000000000000000000, 0.0000000000000000000, 1.000000000000000000 ) ) ;
#71 = PRODUCT_CONTEXT ( 'NONE', #87, 'mechanical' ) ;
#72 = VECTOR ( 'NONE', #316, 1000.000000000000000 ) ;
#73 = ORIENTED_EDGE ( 'NONE', *, *, #402, .T. ) ;
#74 = AXIS2_PLACEMENT_3D ( 'NONE', #10, #9, #4 ) ;
#75 = AXIS2_PLACEMENT_3D ( 'NONE', #6, #33, #236 ) ;
#76 = PLANE ( 'NONE',  #75 ) ;
#77 = DIRECTION ( 'NONE',  ( -1.000000000000000000, -2.948295997280554600E-016, 0.0000000000000000000 ) ) ;
#78 = AXIS2_PLACEMENT_3D ( 'NONE', #346, #165, #166 ) ;
#79 = AXIS2_PLACEMENT_3D ( 'NONE', #206, #221, #306 ) ;
#80 = SURFACE_STYLE_USAGE ( .BOTH. , #140 ) ;
#81 = VECTOR ( 'NONE', #85, 1000.000000000000000 ) ;
#82 = AXIS2_PLACEMENT_3D ( 'NONE', #360, #223, #219 ) ;
#83 = DIRECTION ( 'NONE',  ( 1.000000000000000000, 0.0000000000000000000, 0.0000000000000000000 ) ) ;
#84 = AXIS2_PLACEMENT_3D ( 'NONE', #293, #218, #374 ) ;
#85 = DIRECTION ( 'NONE',  ( 1.000000000000000000, 0.0000000000000000000, 0.0000000000000000000 ) ) ;
#86 = FILL_AREA_STYLE_COLOUR ( '', #267 ) ;
#87 = APPLICATION_CONTEXT ( 'automotive_design' ) ;
#88 = AXIS2_PLACEMENT_3D ( 'NONE', #158, #173, #147 ) ;
#89 = APPLICATION_PROTOCOL_DEFINITION ( 'draft international standard', 'automotive_design', 1998, #87 ) ;
#90 = VECTOR ( 'NONE', #62, 1000.000000000000000 ) ;
#91 = CIRCLE ( 'NONE', #141, 6.400000000000001200 ) ;
#92 = AXIS2_PLACEMENT_3D ( 'NONE', #274, #280, #269 ) ;
#93 =( NAMED_UNIT ( * ) SI_UNIT ( $, .STERADIAN. ) SOLID_ANGLE_UNIT ( ) );
#94 =( LENGTH_UNIT ( ) NAMED_UNIT ( * ) SI_UNIT ( .MILLI., .METRE. ) );
#95 =( NAMED_UNIT ( * ) PLANE_ANGLE_UNIT ( ) SI_UNIT ( $, .RADIAN. ) );
#96 = CARTESIAN_POINT ( 'NONE',  ( 0.0000000000000000000, 0.0000000000000000000, 0.0000000000000000000 ) ) ;
#97 = AXIS2_PLACEMENT_3D ( 'NONE', #246, #232, #247 ) ;
#98 = DIRECTION ( 'NONE',  ( -1.284980352575412700E-016, 1.000000000000000000, -0.0000000000000000000 ) ) ;
#99 = AXIS2_PLACEMENT_3D ( 'NONE', #241, #237, #245 ) ;
#100 = CARTESIAN_POINT ( 'NONE',  ( 3.000000000000000000, 30.00000000000000000, 15.00000000000000000 ) ) ;
#101 = AXIS2_PLACEMENT_3D ( 'NONE', #189, #271, #298 ) ;
#102 = EDGE_LOOP ( 'NONE', ( #260, #310, #261, #256 ) ) ;
#103 = DIRECTION ( 'NONE',  ( -1.000000000000000000, -2.710505431213760600E-016, 0.0000000000000000000 ) ) ;
#104 = DIRECTION ( 'NONE',  ( -2.948295997280554600E-016, 1.000000000000000000, -0.0000000000000000000 ) ) ;
#105 = CARTESIAN_POINT ( 'NONE',  ( 15.00000000000000200, 3.000000000000001800, 0.0000000000000000000 ) ) ;
#106 = AXIS2_PLACEMENT_3D ( 'NONE', #258, #281, #289 ) ;
#107 = EDGE_LOOP ( 'NONE', ( #190, #322, #73, #270, #227, #60 ) ) ;
#108 = DIRECTION ( 'NONE',  ( -1.000000000000000000, -2.710505431213760600E-016, 0.0000000000000000000 ) ) ;
#109 = DIRECTION ( 'NONE',  ( -2.948295997280554600E-016, 1.000000000000000000, -0.0000000000000000000 ) ) ;
#110 = AXIS2_PLACEMENT_3D ( 'NONE', #163, #295, #297 ) ;
#111 = CARTESIAN_POINT ( 'NONE',  ( 15.00000000000000200, 3.000000000000001800, 0.0000000000000000000 ) ) ;
#112 = DIRECTION ( 'NONE',  ( -1.000000000000000000, -0.0000000000000000000, -0.0000000000000000000 ) ) ;
#113 = EDGE_LOOP ( 'NONE', ( #195, #214, #211, #21 ) ) ;
#114 = VECTOR ( 'NONE', #410, 1000.000000000000000 ) ;
#115 = CARTESIAN_POINT ( 'NONE',  ( 0.0000000000000000000, 30.00000000000000000, -15.00000000000000000 ) ) ;
#116 = VECTOR ( 'NONE', #213, 1000.000000000000000 ) ;
#117 = LINE ( 'NONE', #55, #90 ) ;
#118 =( GEOMETRIC_REPRESENTATION_CONTEXT ( 3 ) GLOBAL_UNCERTAINTY_ASSIGNED_CONTEXT ( ( #120 ) ) GLOBAL_UNIT_ASSIGNED_CONTEXT ( ( #94, #95, #93 ) ) REPRESENTATION_CONTEXT ( 'NONE', 'WORKASPACE' ) );
#119 = DIRECTION ( 'NONE',  ( 0.7071067811865435800, 0.7071067811865515700, 8.659560562354887300E-017 ) ) ;
#120 = UNCERTAINTY_MEASURE_WITH_UNIT (LENGTH_MEASURE( 1.000000000000000100E-005 ), #94, 'distance_accuracy_value', 'NONE');
#121 = STYLED_ITEM ( 'NONE', ( #169 ), #202 ) ;
#122 = ADVANCED_FACE ( 'NONE', ( #194 ), #182, .F. ) ;
#123 = PRESENTATION_LAYER_ASSIGNMENT (  '', '', ( #121 ) ) ;
#124 = ADVANCED_FACE ( 'NONE', ( #183, #191 ), #52, .F. ) ;
#125 = EDGE_LOOP ( 'NONE', ( #268, #176, #309, #34, #200, #276 ) ) ;
#126 = ADVANCED_FACE ( 'NONE', ( #172, #180 ), #76, .F. ) ;
#127 = MECHANICAL_DESIGN_GEOMETRIC_PRESENTATION_REPRESENTATION (  '', ( #121 ), #143 ) ;
#128 = CARTESIAN_POINT ( 'NONE',  ( 21.40000000000000200, 3.000000000000003600, 7.837739514543061900E-016 ) ) ;
#129 = AXIS2_PLACEMENT_3D ( 'NONE', #225, #392, #207 ) ;
#130 = DIRECTION ( 'NONE',  ( -0.0000000000000000000, -0.0000000000000000000, -1.000000000000000000 ) ) ;
#131 = ADVANCED_FACE ( 'NONE', ( #187, #164 ), #253, .F. ) ;
#132 = CARTESIAN_POINT ( 'NONE',  ( 0.0000000000000000000, 0.0000000000000000000, 15.00000000000000000 ) ) ;
#133 = AXIS2_PLACEMENT_3D ( 'NONE', #413, #11, #53 ) ;
#134 = AXIS2_PLACEMENT_3D ( 'NONE', #54, #137, #77 ) ;
#135 = CARTESIAN_POINT ( 'NONE',  ( 30.00000000000000000, 0.0000000000000000000, 15.00000000000000000 ) ) ;
#136 = VERTEX_POINT ( 'NONE', #240 ) ;
#137 = DIRECTION ( 'NONE',  ( -2.948295997280554600E-016, 1.000000000000000000, -0.0000000000000000000 ) ) ;
#138 = AXIS2_PLACEMENT_3D ( 'NONE', #111, #109, #108 ) ;
#139 = PRODUCT ( '093wu302v', '093wu302v', '', ( #71 ) ) ;
#140 = SURFACE_SIDE_STYLE ('',( #155 ) ) ;
#141 = AXIS2_PLACEMENT_3D ( 'NONE', #105, #104, #103 ) ;
#142 = LINE ( 'NONE', #100, #290 ) ;
#143 =( GEOMETRIC_REPRESENTATION_CONTEXT ( 3 ) GLOBAL_UNCERTAINTY_ASSIGNED_CONTEXT ( ( #217 ) ) GLOBAL_UNIT_ASSIGNED_CONTEXT ( ( #69, #414, #68 ) ) REPRESENTATION_CONTEXT ( 'NONE', 'WORKASPACE' ) );
#144 = LINE ( 'NONE', #115, #145 ) ;
#145 = VECTOR ( 'NONE', #112, 1000.000000000000000 ) ;
#146 = ADVANCED_FACE ( 'NONE', ( #333 ), #325, .F. ) ;
#147 = DIRECTION ( 'NONE',  ( -1.000000000000000000, 0.0000000000000000000, -0.0000000000000000000 ) ) ;
#148 = CARTESIAN_POINT ( 'NONE',  ( 0.0000000000000000000, 15.00000000000000000, 3.399999999999986100 ) ) ;
#149 = AXIS2_PLACEMENT_3D ( 'NONE', #96, #70, #83 ) ;
#150 = CARTESIAN_POINT ( 'NONE',  ( 3.000000000000003600, 15.00000000000000000, 6.399999999999999500 ) ) ;
#151 = PRODUCT_DEFINITION ( 'UNKNOWN', '', #152, #287 ) ;
#152 = PRODUCT_DEFINITION_FORMATION_WITH_SPECIFIED_SOURCE ( 'ANY', '', #139, .NOT_KNOWN. ) ;
#153 = PRODUCT_RELATED_PRODUCT_CATEGORY ( 'part', '', ( #139 ) ) ;
#154 = EDGE_LOOP ( 'NONE', ( #294, #216 ) ) ;
#155 = SURFACE_STYLE_FILL_AREA ( #65 ) ;
#156 = EDGE_LOOP ( 'NONE', ( #19, #248, #244, #308 ) ) ;
#157 = ORIENTED_EDGE ( 'NONE', *, *, #386, .T. ) ;
#158 = CARTESIAN_POINT ( 'NONE',  ( 0.0000000000000000000, 30.00000000000000000, 15.00000000000000000 ) ) ;
#159 = DIRECTION ( 'NONE',  ( -1.000000000000000000, -0.0000000000000000000, -0.0000000000000000000 ) ) ;
#160 = ORIENTED_EDGE ( 'NONE', *, *, #347, .T. ) ;
#161 = VERTEX_POINT ( 'NONE', #265 ) ;
#162 = VERTEX_POINT ( 'NONE', #263 ) ;
#163 = CARTESIAN_POINT ( 'NONE',  ( 0.0000000000000000000, 30.00000000000000000, 15.00000000000000000 ) ) ;
#164 = FACE_OUTER_BOUND ( 'NONE', #113, .T. ) ;
#165 = DIRECTION ( 'NONE',  ( -2.948295997280554600E-016, 1.000000000000000000, -0.0000000000000000000 ) ) ;
#166 = DIRECTION ( 'NONE',  ( -1.000000000000000000, -2.948295997280554600E-016, 0.0000000000000000000 ) ) ;
#167 = VERTEX_POINT ( 'NONE', #235 ) ;
#168 = LINE ( 'NONE', #51, #184 ) ;
#169 = PRESENTATION_STYLE_ASSIGNMENT (( #80 ) ) ;
#170 = ORIENTED_EDGE ( 'NONE', *, *, #411, .T. ) ;
#171 = CIRCLE ( 'NONE', #82, 3.399999999999986100 ) ;
#172 = FACE_BOUND ( 'NONE', #210, .T. ) ;
#173 = DIRECTION ( 'NONE',  ( 0.0000000000000000000, 0.0000000000000000000, -1.000000000000000000 ) ) ;
#174 = ADVANCED_FACE ( 'NONE', ( #198 ), #343, .F. ) ;
#175 = CIRCLE ( 'NONE', #138, 6.400000000000001200 ) ;
#176 = ORIENTED_EDGE ( 'NONE', *, *, #415, .F. ) ;
#177 = FACE_OUTER_BOUND ( 'NONE', #125, .T. ) ;
#178 = ADVANCED_FACE ( 'NONE', ( #332 ), #334, .F. ) ;
#179 = ORIENTED_EDGE ( 'NONE', *, *, #371, .F. ) ;
#180 = FACE_OUTER_BOUND ( 'NONE', #156, .T. ) ;
#181 = CLOSED_SHELL ( 'NONE', ( #146, #178, #124, #262, #252, #131, #126, #186, #188, #185, #122, #174 ) ) ;
#182 = CONICAL_SURFACE ( 'NONE', #381, 6.400000000000001200, 0.7853981633974428400 ) ;
#183 = FACE_BOUND ( 'NONE', #283, .T. ) ;
#184 = VECTOR ( 'NONE', #59, 1000.000000000000000 ) ;
#185 = ADVANCED_FACE ( 'NONE', ( #177 ), #279, .T. ) ;
#186 = ADVANCED_FACE ( 'NONE', ( #328 ), #282, .F. ) ;
#187 = FACE_BOUND ( 'NONE', #154, .T. ) ;
#188 = ADVANCED_FACE ( 'NONE', ( #201 ), #291, .F. ) ;
#189 = CARTESIAN_POINT ( 'NONE',  ( 0.0000000000000000000, 15.00000000000000000, 0.0000000000000000000 ) ) ;
#190 = ORIENTED_EDGE ( 'NONE', *, *, #329, .T. ) ;
#191 = FACE_OUTER_BOUND ( 'NONE', #404, .T. ) ;
#192 = EDGE_LOOP ( 'NONE', ( #314, #230, #251, #231 ) ) ;
#193 = VERTEX_POINT ( 'NONE', #292 ) ;
#194 = FACE_OUTER_BOUND ( 'NONE', #278, .T. ) ;
#195 = ORIENTED_EDGE ( 'NONE', *, *, #361, .T. ) ;
#196 = ORIENTED_EDGE ( 'NONE', *, *, #366, .F. ) ;
#197 = ORIENTED_EDGE ( 'NONE', *, *, #396, .T. ) ;
#198 = FACE_OUTER_BOUND ( 'NONE', #36, .T. ) ;
#199 = CARTESIAN_POINT ( 'NONE',  ( 0.0000000000000000000, 0.0000000000000000000, 15.00000000000000000 ) ) ;
#200 = ORIENTED_EDGE ( 'NONE', *, *, #373, .F. ) ;
#201 = FACE_OUTER_BOUND ( 'NONE', #107, .T. ) ;
#202 = ADVANCED_BREP_SHAPE_REPRESENTATION ( '093wu302v', ( #18, #149 ), #118 ) ;
#203 = VERTEX_POINT ( 'NONE', #150 ) ;
#204 = ORIENTED_EDGE ( 'NONE', *, *, #359, .T. ) ;
#205 = CARTESIAN_POINT ( 'NONE',  ( 11.59999999999996900, -1.350589010869947800E-016, 0.0000000000000000000 ) ) ;
#206 = CARTESIAN_POINT ( 'NONE',  ( 0.0000000000000000000, 0.0000000000000000000, 15.00000000000000000 ) ) ;
#207 = DIRECTION ( 'NONE',  ( 0.0000000000000000000, 0.0000000000000000000, 1.000000000000000000 ) ) ;
#208 = CARTESIAN_POINT ( 'NONE',  ( 30.00000000000000000, 0.0000000000000000000, -15.00000000000000000 ) ) ;
#209 = DIRECTION ( 'NONE',  ( 0.7071067811865463500, 0.0000000000000000000, -0.7071067811865487900 ) ) ;
#210 = EDGE_LOOP ( 'NONE', ( #377, #229 ) ) ;
#211 = ORIENTED_EDGE ( 'NONE', *, *, #365, .F. ) ;
#212 = ORIENTED_EDGE ( 'NONE', *, *, #338, .T. ) ;
#213 = DIRECTION ( 'NONE',  ( -0.0000000000000000000, -0.0000000000000000000, -1.000000000000000000 ) ) ;
#214 = ORIENTED_EDGE ( 'NONE', *, *, #362, .F. ) ;
#215 = CARTESIAN_POINT ( 'NONE',  ( 0.0000000000000000000, 30.00000000000000000, 15.00000000000000000 ) ) ;
#216 = ORIENTED_EDGE ( 'NONE', *, *, #408, .F. ) ;
#217 = UNCERTAINTY_MEASURE_WITH_UNIT (LENGTH_MEASURE( 1.000000000000000100E-005 ), #69, 'distance_accuracy_value', 'NONE');
#218 = DIRECTION ( 'NONE',  ( -1.000000000000000000, 0.0000000000000000000, 0.0000000000000000000 ) ) ;
#219 = DIRECTION ( 'NONE',  ( 0.0000000000000000000, 0.0000000000000000000, 1.000000000000000000 ) ) ;
#220 = ORIENTED_EDGE ( 'NONE', *, *, #407, .F. ) ;
#221 = DIRECTION ( 'NONE',  ( 0.0000000000000000000, 1.000000000000000000, 0.0000000000000000000 ) ) ;
#222 = LINE ( 'NONE', #57, #81 ) ;
#223 = DIRECTION ( 'NONE',  ( -1.000000000000000000, -0.0000000000000000000, -0.0000000000000000000 ) ) ;
#224 = CARTESIAN_POINT ( 'NONE',  ( 0.0000000000000000000, 15.00000000000000000, -3.399999999999986100 ) ) ;
#225 = CARTESIAN_POINT ( 'NONE',  ( 3.000000000000003600, 15.00000000000000000, 0.0000000000000000000 ) ) ;
#226 = UNCERTAINTY_MEASURE_WITH_UNIT (LENGTH_MEASURE( 1.000000000000000100E-005 ), #2, 'distance_accuracy_value', 'NONE');
#227 = ORIENTED_EDGE ( 'NONE', *, *, #416, .T. ) ;
#228 = VERTEX_POINT ( 'NONE', #300 ) ;
#229 = ORIENTED_EDGE ( 'NONE', *, *, #366, .T. ) ;
#230 = ORIENTED_EDGE ( 'NONE', *, *, #375, .F. ) ;
#231 = ORIENTED_EDGE ( 'NONE', *, *, #403, .T. ) ;
#232 = DIRECTION ( 'NONE',  ( 1.606225440719266200E-017, -1.000000000000000000, 0.0000000000000000000 ) ) ;
#233 = ORIENTED_EDGE ( 'NONE', *, *, #342, .T. ) ;
#234 = LINE ( 'NONE', #128, #61 ) ;
#235 = CARTESIAN_POINT ( 'NONE',  ( 3.000000000000000000, 30.00000000000000000, -15.00000000000000000 ) ) ;
#236 = DIRECTION ( 'NONE',  ( 1.284980352575412700E-016, -1.000000000000000000, 0.0000000000000000000 ) ) ;
#237 = DIRECTION ( 'NONE',  ( 1.000000000000000000, 0.0000000000000000000, 0.0000000000000000000 ) ) ;
#238 = VERTEX_POINT ( 'NONE', #304 ) ;
#239 = PRESENTATION_STYLE_ASSIGNMENT (( #48 ) ) ;
#240 = CARTESIAN_POINT ( 'NONE',  ( 30.00000000000000000, 3.000000000000000000, -15.00000000000000000 ) ) ;
#241 = CARTESIAN_POINT ( 'NONE',  ( 0.0000000000000000000, 15.00000000000000000, 0.0000000000000000000 ) ) ;
#242 = PRESENTATION_LAYER_ASSIGNMENT (  '', '', ( #339 ) ) ;
#243 = COLOUR_RGB ( '',0.7529411764705882200, 0.7529411764705882200, 0.7529411764705882200 ) ;
#244 = ORIENTED_EDGE ( 'NONE', *, *, #416, .F. ) ;
#245 = DIRECTION ( 'NONE',  ( 0.0000000000000000000, 0.0000000000000000000, -1.000000000000000000 ) ) ;
#246 = CARTESIAN_POINT ( 'NONE',  ( 3.000000000000003600, 2.999999999999999600, 15.00000000000000000 ) ) ;
#247 = DIRECTION ( 'NONE',  ( 1.000000000000000000, 1.606225440719266200E-017, 0.0000000000000000000 ) ) ;
#248 = ORIENTED_EDGE ( 'NONE', *, *, #396, .F. ) ;
#249 = ORIENTED_EDGE ( 'NONE', *, *, #347, .F. ) ;
#250 = PRODUCT_DEFINITION_SHAPE ( 'NONE', 'NONE',  #151 ) ;
#251 = ORIENTED_EDGE ( 'NONE', *, *, #402, .F. ) ;
#252 = ADVANCED_FACE ( 'NONE', ( #353 ), #315, .F. ) ;
#253 = PLANE ( 'NONE',  #97 ) ;
#254 = VERTEX_POINT ( 'NONE', #299 ) ;
#255 = ORIENTED_EDGE ( 'NONE', *, *, #352, .F. ) ;
#256 = ORIENTED_EDGE ( 'NONE', *, *, #359, .F. ) ;
#257 = EDGE_CURVE ( 'NONE', #56, #31, #336, .T. ) ;
#258 = CARTESIAN_POINT ( 'NONE',  ( 0.0000000000000000000, 30.00000000000000000, -15.00000000000000000 ) ) ;
#259 = VECTOR ( 'NONE', #341, 1000.000000000000000 ) ;
#260 = ORIENTED_EDGE ( 'NONE', *, *, #348, .T. ) ;
#261 = ORIENTED_EDGE ( 'NONE', *, *, #357, .F. ) ;
#262 = ADVANCED_FACE ( 'NONE', ( #349, #344 ), #311, .F. ) ;
#263 = CARTESIAN_POINT ( 'NONE',  ( 21.40000000000000200, 3.000000000000003600, 7.837739514543061900E-016 ) ) ;
#264 = VERTEX_POINT ( 'NONE', #205 ) ;
#265 = CARTESIAN_POINT ( 'NONE',  ( 3.000000000000003600, 2.999999999999999600, 15.00000000000000000 ) ) ;
#266 = MECHANICAL_DESIGN_GEOMETRIC_PRESENTATION_REPRESENTATION (  '', ( #339 ), #395 ) ;
#267 = COLOUR_RGB ( '',0.7529411764705882200, 0.7529411764705882200, 0.7529411764705882200 ) ;
#268 = ORIENTED_EDGE ( 'NONE', *, *, #331, .F. ) ;
#269 = DIRECTION ( 'NONE',  ( -1.000000000000000000, -2.710505431213760600E-016, 0.0000000000000000000 ) ) ;
#270 = ORIENTED_EDGE ( 'NONE', *, *, #365, .T. ) ;
#271 = DIRECTION ( 'NONE',  ( 1.000000000000000000, 0.0000000000000000000, 0.0000000000000000000 ) ) ;
#272 = ORIENTED_EDGE ( 'NONE', *, *, #331, .T. ) ;
#273 = ORIENTED_EDGE ( 'NONE', *, *, #338, .F. ) ;
#274 = CARTESIAN_POINT ( 'NONE',  ( 15.00000000000000200, 3.000000000000001800, 0.0000000000000000000 ) ) ;
#275 = ORIENTED_EDGE ( 'NONE', *, *, #383, .T. ) ;
#276 = ORIENTED_EDGE ( 'NONE', *, *, #386, .F. ) ;
#277 = ORIENTED_EDGE ( 'NONE', *, *, #383, .F. ) ;
#278 = EDGE_LOOP ( 'NONE', ( #220, #277, #233, #170 ) ) ;
#279 = PLANE ( 'NONE',  #106 ) ;
#280 = DIRECTION ( 'NONE',  ( -2.948295997280554600E-016, 1.000000000000000000, -0.0000000000000000000 ) ) ;
#281 = DIRECTION ( 'NONE',  ( 0.0000000000000000000, 0.0000000000000000000, -1.000000000000000000 ) ) ;
#282 = PLANE ( 'NONE',  #110 ) ;
#283 = EDGE_LOOP ( 'NONE', ( #318, #273 ) ) ;
#284 = VERTEX_POINT ( 'NONE', #208 ) ;
#285 = ORIENTED_EDGE ( 'NONE', *, *, #257, .T. ) ;
#286 = APPLICATION_PROTOCOL_DEFINITION ( 'draft international standard', 'automotive_design', 1998, #394 ) ;
#287 = PRODUCT_DEFINITION_CONTEXT ( 'detailed design', #394, 'design' ) ;
#288 = ORIENTED_EDGE ( 'NONE', *, *, #329, .F. ) ;
#289 = DIRECTION ( 'NONE',  ( -1.000000000000000000, 0.0000000000000000000, -0.0000000000000000000 ) ) ;
#290 = VECTOR ( 'NONE', #98, 1000.000000000000000 ) ;
#291 = PLANE ( 'NONE',  #88 ) ;
#292 = CARTESIAN_POINT ( 'NONE',  ( 3.000000000000000000, 30.00000000000000000, 15.00000000000000000 ) ) ;
#293 = CARTESIAN_POINT ( 'NONE',  ( 30.00000000000000000, 0.0000000000000000000, 15.00000000000000000 ) ) ;
#294 = ORIENTED_EDGE ( 'NONE', *, *, #411, .F. ) ;
#295 = DIRECTION ( 'NONE',  ( 0.0000000000000000000, -1.000000000000000000, 0.0000000000000000000 ) ) ;
#296 = ORIENTED_EDGE ( 'NONE', *, *, #342, .F. ) ;
#297 = DIRECTION ( 'NONE',  ( 0.0000000000000000000, -0.0000000000000000000, -1.000000000000000000 ) ) ;
#298 = DIRECTION ( 'NONE',  ( 0.0000000000000000000, 0.0000000000000000000, -1.000000000000000000 ) ) ;
#299 = CARTESIAN_POINT ( 'NONE',  ( 3.000000000000003600, 2.999999999999999600, -15.00000000000000000 ) ) ;
#300 = CARTESIAN_POINT ( 'NONE',  ( 18.40000000000003400, 1.869782377063801900E-015, 6.000769315822054400E-016 ) ) ;
#301 = LINE ( 'NONE', #305, #114 ) ;
#302 = ORIENTED_EDGE ( 'NONE', *, *, #408, .T. ) ;
#303 = ORIENTED_EDGE ( 'NONE', *, *, #330, .T. ) ;
#304 = CARTESIAN_POINT ( 'NONE',  ( 3.000000000000003600, 15.00000000000000000, -6.399999999999999500 ) ) ;
#305 = CARTESIAN_POINT ( 'NONE',  ( 30.00000000000000000, 3.000000000000000000, 15.00000000000000000 ) ) ;
#306 = DIRECTION ( 'NONE',  ( 0.0000000000000000000, -0.0000000000000000000, 1.000000000000000000 ) ) ;
#307 = ORIENTED_EDGE ( 'NONE', *, *, #415, .T. ) ;
#308 = ORIENTED_EDGE ( 'NONE', *, *, #362, .T. ) ;
#309 = ORIENTED_EDGE ( 'NONE', *, *, #367, .F. ) ;
#310 = ORIENTED_EDGE ( 'NONE', *, *, #352, .T. ) ;
#311 = PLANE ( 'NONE',  #79 ) ;
#312 = VERTEX_POINT ( 'NONE', #320 ) ;
#313 = ORIENTED_EDGE ( 'NONE', *, *, #403, .F. ) ;
#314 = ORIENTED_EDGE ( 'NONE', *, *, #373, .T. ) ;
#315 = PLANE ( 'NONE',  #84 ) ;
#316 = DIRECTION ( 'NONE',  ( -0.0000000000000000000, -0.0000000000000000000, -1.000000000000000000 ) ) ;
#317 = ORIENTED_EDGE ( 'NONE', *, *, #407, .T. ) ;
#318 = ORIENTED_EDGE ( 'NONE', *, *, #348, .F. ) ;
#319 = CARTESIAN_POINT ( 'NONE',  ( 0.0000000000000000000, 30.00000000000000000, 15.00000000000000000 ) ) ;
#320 = CARTESIAN_POINT ( 'NONE',  ( 30.00000000000000000, 3.000000000000000000, 15.00000000000000000 ) ) ;
#321 = VERTEX_POINT ( 'NONE', #199 ) ;
#322 = ORIENTED_EDGE ( 'NONE', *, *, #371, .T. ) ;
#323 = VECTOR ( 'NONE', #398, 1000.000000000000000 ) ;
#324 = CARTESIAN_POINT ( 'NONE',  ( 0.0000000000000000000, 0.0000000000000000000, 15.00000000000000000 ) ) ;
#325 = CONICAL_SURFACE ( 'NONE', #99, 3.399999999999986100, 0.7853981633974499400 ) ;
#326 = CARTESIAN_POINT ( 'NONE',  ( 0.0000000000000000000, 0.0000000000000000000, -15.00000000000000000 ) ) ;
#327 = DIRECTION ( 'NONE',  ( -0.0000000000000000000, -1.000000000000000000, -0.0000000000000000000 ) ) ;
#328 = FACE_OUTER_BOUND ( 'NONE', #1, .T. ) ;
#329 = EDGE_CURVE ( 'NONE', #56, #321, #345, .T. ) ;
#330 = EDGE_CURVE ( 'NONE', #321, #47, #351, .T. ) ;
#331 = EDGE_CURVE ( 'NONE', #31, #47, #399, .T. ) ;
#332 = FACE_OUTER_BOUND ( 'NONE', #49, .T. ) ;
#333 = FACE_OUTER_BOUND ( 'NONE', #102, .T. ) ;
#334 = CONICAL_SURFACE ( 'NONE', #92, 6.400000000000001200, 0.7853981633974428400 ) ;
#335 = DIRECTION ( 'NONE',  ( -0.0000000000000000000, -0.0000000000000000000, -1.000000000000000000 ) ) ;
#336 = LINE ( 'NONE', #319, #72 ) ;
#337 = DIRECTION ( 'NONE',  ( -1.000000000000000000, -0.0000000000000000000, -0.0000000000000000000 ) ) ;
#338 = EDGE_CURVE ( 'NONE', #30, #28, #171, .T. ) ;
#339 = STYLED_ITEM ( 'NONE', ( #239 ), #18 ) ;
#340 = EDGE_CURVE ( 'NONE', #193, #56, #354, .T. ) ;
#341 = DIRECTION ( 'NONE',  ( -0.0000000000000000000, -1.000000000000000000, -0.0000000000000000000 ) ) ;
#342 = EDGE_CURVE ( 'NONE', #264, #58, #412, .T. ) ;
#343 = CONICAL_SURFACE ( 'NONE', #101, 3.399999999999986100, 0.7853981633974499400 ) ;
#344 = FACE_OUTER_BOUND ( 'NONE', #37, .T. ) ;
#345 = LINE ( 'NONE', #324, #356 ) ;
#346 = CARTESIAN_POINT ( 'NONE',  ( 15.00000000000000400, 8.673617379884035500E-016, 0.0000000000000000000 ) ) ;
#347 = EDGE_CURVE ( 'NONE', #228, #264, #15, .T. ) ;
#348 = EDGE_CURVE ( 'NONE', #28, #30, #364, .T. ) ;
#349 = FACE_BOUND ( 'NONE', #406, .T. ) ;
#350 = DIRECTION ( 'NONE',  ( -1.284980352575412700E-016, 1.000000000000000000, -0.0000000000000000000 ) ) ;
#351 = LINE ( 'NONE', #16, #358 ) ;
#352 = EDGE_CURVE ( 'NONE', #30, #203, #391, .T. ) ;
#353 = FACE_OUTER_BOUND ( 'NONE', #192, .T. ) ;
#354 = LINE ( 'NONE', #215, #388 ) ;
#355 = SHAPE_DEFINITION_REPRESENTATION ( #250, #202 ) ;
#356 = VECTOR ( 'NONE', #327, 1000.000000000000000 ) ;
#357 = EDGE_CURVE ( 'NONE', #238, #203, #376, .T. ) ;
#358 = VECTOR ( 'NONE', #335, 1000.000000000000000 ) ;
#359 = EDGE_CURVE ( 'NONE', #28, #238, #369, .T. ) ;
#360 = CARTESIAN_POINT ( 'NONE',  ( 0.0000000000000000000, 15.00000000000000000, 0.0000000000000000000 ) ) ;
#361 = EDGE_CURVE ( 'NONE', #136, #254, #405, .T. ) ;
#362 = EDGE_CURVE ( 'NONE', #161, #254, #372, .T. ) ;
#363 = CARTESIAN_POINT ( 'NONE',  ( 3.000000000000003600, 2.999999999999999600, 15.00000000000000000 ) ) ;
#364 = CIRCLE ( 'NONE', #67, 3.399999999999986100 ) ;
#365 = EDGE_CURVE ( 'NONE', #312, #161, #370, .T. ) ;
#366 = EDGE_CURVE ( 'NONE', #203, #238, #13, .T. ) ;
#367 = EDGE_CURVE ( 'NONE', #254, #167, #17, .T. ) ;
#368 = CARTESIAN_POINT ( 'NONE',  ( 3.000000000000003600, 2.999999999999999600, -15.00000000000000000 ) ) ;
#369 = LINE ( 'NONE', #224, #389 ) ;
#370 = LINE ( 'NONE', #409, #323 ) ;
#371 = EDGE_CURVE ( 'NONE', #321, #39, #64, .T. ) ;
#372 = LINE ( 'NONE', #363, #116 ) ;
#373 = EDGE_CURVE ( 'NONE', #284, #136, #50, .T. ) ;
#374 = DIRECTION ( 'NONE',  ( 0.0000000000000000000, 0.0000000000000000000, 1.000000000000000000 ) ) ;
#375 = EDGE_CURVE ( 'NONE', #312, #136, #301, .T. ) ;
#376 = CIRCLE ( 'NONE', #129, 6.399999999999999500 ) ;
#377 = ORIENTED_EDGE ( 'NONE', *, *, #357, .T. ) ;
#378 = DIRECTION ( 'NONE',  ( -1.000000000000000000, -1.606225440719266200E-017, -0.0000000000000000000 ) ) ;
#379 = SURFACE_STYLE_FILL_AREA ( #8 ) ;
#380 = DIRECTION ( 'NONE',  ( 0.0000000000000000000, 0.0000000000000000000, 1.000000000000000000 ) ) ;
#381 = AXIS2_PLACEMENT_3D ( 'NONE', #43, #44, #42 ) ;
#382 = DIRECTION ( 'NONE',  ( 0.7071067811865463500, 8.659560562354948900E-017, 0.7071067811865487900 ) ) ;
#383 = EDGE_CURVE ( 'NONE', #264, #228, #12, .T. ) ;
#384 = CARTESIAN_POINT ( 'NONE',  ( 8.599999999999999600, 3.000000000000000000, 0.0000000000000000000 ) ) ;
#385 = DIRECTION ( 'NONE',  ( -0.7071067811865440200, 0.7071067811865511300, 0.0000000000000000000 ) ) ;
#386 = EDGE_CURVE ( 'NONE', #47, #284, #222, .T. ) ;
#387 = VECTOR ( 'NONE', #385, 999.9999999999998900 ) ;
#388 = VECTOR ( 'NONE', #337, 1000.000000000000000 ) ;
#389 = VECTOR ( 'NONE', #209, 999.9999999999998900 ) ;
#390 = CARTESIAN_POINT ( 'NONE',  ( 0.0000000000000000000, 15.00000000000000000, 0.0000000000000000000 ) ) ;
#391 = LINE ( 'NONE', #148, #397 ) ;
#392 = DIRECTION ( 'NONE',  ( -1.000000000000000000, -0.0000000000000000000, -0.0000000000000000000 ) ) ;
#393 = CARTESIAN_POINT ( 'NONE',  ( 30.00000000000000000, 0.0000000000000000000, -15.00000000000000000 ) ) ;
#394 = APPLICATION_CONTEXT ( 'automotive_design' ) ;
#395 =( GEOMETRIC_REPRESENTATION_CONTEXT ( 3 ) GLOBAL_UNCERTAINTY_ASSIGNED_CONTEXT ( ( #226 ) ) GLOBAL_UNIT_ASSIGNED_CONTEXT ( ( #2, #3, #35 ) ) REPRESENTATION_CONTEXT ( 'NONE', 'WORKASPACE' ) );
#396 = EDGE_CURVE ( 'NONE', #193, #167, #168, .T. ) ;
#397 = VECTOR ( 'NONE', #382, 999.9999999999998900 ) ;
#398 = DIRECTION ( 'NONE',  ( -1.000000000000000000, -1.606225440719266200E-017, -0.0000000000000000000 ) ) ;
#399 = LINE ( 'NONE', #326, #259 ) ;
#400 = VECTOR ( 'NONE', #378, 1000.000000000000000 ) ;
#401 = DIRECTION ( 'NONE',  ( 0.0000000000000000000, 1.000000000000000000, 0.0000000000000000000 ) ) ;
#402 = EDGE_CURVE ( 'NONE', #39, #312, #117, .T. ) ;
#403 = EDGE_CURVE ( 'NONE', #39, #284, #14, .T. ) ;
#404 = EDGE_LOOP ( 'NONE', ( #272, #20, #288, #285 ) ) ;
#405 = LINE ( 'NONE', #368, #400 ) ;
#406 = EDGE_LOOP ( 'NONE', ( #275, #160 ) ) ;
#407 = EDGE_CURVE ( 'NONE', #228, #162, #234, .T. ) ;
#408 = EDGE_CURVE ( 'NONE', #162, #58, #175, .T. ) ;
#409 = CARTESIAN_POINT ( 'NONE',  ( 3.000000000000003600, 2.999999999999999600, 15.00000000000000000 ) ) ;
#410 = DIRECTION ( 'NONE',  ( -0.0000000000000000000, -0.0000000000000000000, -1.000000000000000000 ) ) ;
#411 = EDGE_CURVE ( 'NONE', #58, #162, #91, .T. ) ;
#412 = LINE ( 'NONE', #384, #387 ) ;
#413 = CARTESIAN_POINT ( 'NONE',  ( 3.000000000000003600, 15.00000000000000000, 0.0000000000000000000 ) ) ;
#414 =( NAMED_UNIT ( * ) PLANE_ANGLE_UNIT ( ) SI_UNIT ( $, .RADIAN. ) );
#415 = EDGE_CURVE ( 'NONE', #167, #31, #144, .T. ) ;
#416 = EDGE_CURVE ( 'NONE', #161, #193, #142, .T. ) ;
ENDSEC;
END-ISO-10303-21;
