ISO-10303-21;
HEADER;
FILE_DESCRIPTION(('STEP AP214'),'1');
FILE_NAME('fath_093wu302v.stp','2017-08-24T11:02:05',('TraceParts'),('TraceParts S.A.'),'Spatial InterOp 3D',' ',' ');
FILE_SCHEMA(('automotive_design'));
ENDSEC;
DATA;
#1=MECHANICAL_DESIGN_GEOMETRIC_PRESENTATION_REPRESENTATION(' ',(#10,#11,#12,#13,#14,#15,#16,#17,#18,#19,#20,#21,#22),#6);
#2=PRODUCT_DEFINITION_CONTEXT('',#23,'design');
#3=APPLICATION_PROTOCOL_DEFINITION('INTERNATIONAL STANDARD','automotive_design',1994,#23);
#4=PRODUCT_CATEGORY_RELATIONSHIP('NONE','NONE',#24,#25);
#5=SHAPE_DEFINITION_REPRESENTATION(#26,#27);
#6= (GEOMETRIC_REPRESENTATION_CONTEXT(3)GLOBAL_UNCERTAINTY_ASSIGNED_CONTEXT((#30))GLOBAL_UNIT_ASSIGNED_CONTEXT((#32,#33,#34))REPRESENTATION_CONTEXT('NONE','WORKSPACE'));
#10=STYLED_ITEM('',(#36),#37);
#11=STYLED_ITEM('',(#38),#39);
#12=STYLED_ITEM('',(#40),#41);
#13=STYLED_ITEM('',(#42),#43);
#14=STYLED_ITEM('',(#44),#45);
#15=STYLED_ITEM('',(#46),#47);
#16=STYLED_ITEM('',(#48),#49);
#17=STYLED_ITEM('',(#50),#51);
#18=STYLED_ITEM('',(#52),#53);
#19=STYLED_ITEM('',(#54),#55);
#20=STYLED_ITEM('',(#56),#57);
#21=STYLED_ITEM('',(#58),#59);
#22=STYLED_ITEM('',(#60),#61);
#23=APPLICATION_CONTEXT(' ');
#24=PRODUCT_CATEGORY('part','NONE');
#25=PRODUCT_RELATED_PRODUCT_CATEGORY('detail',' ',(#62));
#26=PRODUCT_DEFINITION_SHAPE('NONE','NONE',#63);
#27=ADVANCED_BREP_SHAPE_REPRESENTATION('fath_093wu302v',(#61,#64),#6);
#30=UNCERTAINTY_MEASURE_WITH_UNIT(LENGTH_MEASURE(1.0E-006),#32,'','');
#32= (CONVERSION_BASED_UNIT('MILLIMETRE',#67)LENGTH_UNIT()NAMED_UNIT(#70));
#33= (NAMED_UNIT(#72)PLANE_ANGLE_UNIT()SI_UNIT($,.RADIAN.));
#34= (NAMED_UNIT(#72)SOLID_ANGLE_UNIT()SI_UNIT($,.STERADIAN.));
#36=PRESENTATION_STYLE_ASSIGNMENT((#78));
#37=ADVANCED_FACE('NONE',(#79),#80,.F.);
#38=PRESENTATION_STYLE_ASSIGNMENT((#81));
#39=ADVANCED_FACE('NONE',(#82),#83,.F.);
#40=PRESENTATION_STYLE_ASSIGNMENT((#84));
#41=ADVANCED_FACE('NONE',(#85,#86),#87,.F.);
#42=PRESENTATION_STYLE_ASSIGNMENT((#88));
#43=ADVANCED_FACE('NONE',(#89,#90),#91,.F.);
#44=PRESENTATION_STYLE_ASSIGNMENT((#92));
#45=ADVANCED_FACE('NONE',(#93),#94,.F.);
#46=PRESENTATION_STYLE_ASSIGNMENT((#95));
#47=ADVANCED_FACE('NONE',(#96,#97),#98,.F.);
#48=PRESENTATION_STYLE_ASSIGNMENT((#99));
#49=ADVANCED_FACE('NONE',(#100,#101),#102,.F.);
#50=PRESENTATION_STYLE_ASSIGNMENT((#103));
#51=ADVANCED_FACE('NONE',(#104),#105,.F.);
#52=PRESENTATION_STYLE_ASSIGNMENT((#106));
#53=ADVANCED_FACE('NONE',(#107),#108,.F.);
#54=PRESENTATION_STYLE_ASSIGNMENT((#109));
#55=ADVANCED_FACE('NONE',(#110),#111,.T.);
#56=PRESENTATION_STYLE_ASSIGNMENT((#112));
#57=ADVANCED_FACE('NONE',(#113),#114,.F.);
#58=PRESENTATION_STYLE_ASSIGNMENT((#115));
#59=ADVANCED_FACE('NONE',(#116),#117,.F.);
#60=PRESENTATION_STYLE_ASSIGNMENT((#118));
#61=MANIFOLD_SOLID_BREP('fath_093wu302v',#119);
#62=PRODUCT('fath_093wu302v','fath_093wu302v','PART-fath_093wu302v-DESC',(#120));
#63=PRODUCT_DEFINITION('NONE','NONE',#121,#2);
#64=AXIS2_PLACEMENT_3D('',#122,#123,#124);
#67=LENGTH_MEASURE_WITH_UNIT(LENGTH_MEASURE(1.0),#125);
#70=DIMENSIONAL_EXPONENTS(1.0,0.0,0.0,0.0,0.0,0.0,0.0);
#72=DIMENSIONAL_EXPONENTS(0.0,0.0,0.0,0.0,0.0,0.0,0.0);
#78=SURFACE_STYLE_USAGE(.BOTH.,#126);
#79=FACE_OUTER_BOUND('',#127,.T.);
#80=CONICAL_SURFACE('',#128,3.39999999999999,0.78539816339745);
#81=SURFACE_STYLE_USAGE(.BOTH.,#129);
#82=FACE_OUTER_BOUND('',#130,.T.);
#83=CONICAL_SURFACE('',#131,6.4,0.785398163397443);
#84=SURFACE_STYLE_USAGE(.BOTH.,#132);
#85=FACE_OUTER_BOUND('',#133,.T.);
#86=FACE_BOUND('',#134,.T.);
#87=PLANE('',#135);
#88=SURFACE_STYLE_USAGE(.BOTH.,#136);
#89=FACE_OUTER_BOUND('',#137,.T.);
#90=FACE_BOUND('',#138,.T.);
#91=PLANE('',#139);
#92=SURFACE_STYLE_USAGE(.BOTH.,#140);
#93=FACE_OUTER_BOUND('',#141,.T.);
#94=PLANE('',#142);
#95=SURFACE_STYLE_USAGE(.BOTH.,#143);
#96=FACE_OUTER_BOUND('',#144,.T.);
#97=FACE_BOUND('',#145,.T.);
#98=PLANE('',#146);
#99=SURFACE_STYLE_USAGE(.BOTH.,#147);
#100=FACE_OUTER_BOUND('',#148,.T.);
#101=FACE_BOUND('',#149,.T.);
#102=PLANE('',#150);
#103=SURFACE_STYLE_USAGE(.BOTH.,#151);
#104=FACE_OUTER_BOUND('',#152,.T.);
#105=PLANE('',#153);
#106=SURFACE_STYLE_USAGE(.BOTH.,#154);
#107=FACE_OUTER_BOUND('',#155,.T.);
#108=PLANE('',#156);
#109=SURFACE_STYLE_USAGE(.BOTH.,#157);
#110=FACE_OUTER_BOUND('',#158,.T.);
#111=PLANE('',#159);
#112=SURFACE_STYLE_USAGE(.BOTH.,#160);
#113=FACE_OUTER_BOUND('',#161,.T.);
#114=CONICAL_SURFACE('',#162,6.4,0.785398163397443);
#115=SURFACE_STYLE_USAGE(.BOTH.,#163);
#116=FACE_OUTER_BOUND('',#164,.T.);
#117=CONICAL_SURFACE('',#165,3.39999999999999,0.78539816339745);
#118=SURFACE_STYLE_USAGE(.BOTH.,#166);
#119=CLOSED_SHELL('',(#37,#39,#41,#43,#45,#47,#49,#51,#53,#55,#57,#59));
#120=PRODUCT_CONTEXT('',#23,'mechanical');
#121=PRODUCT_DEFINITION_FORMATION_WITH_SPECIFIED_SOURCE(' ','NONE',#62,.NOT_KNOWN.);
#122=CARTESIAN_POINT('',(0.0,0.0,0.0));
#123=DIRECTION('',(0.0,0.0,1.0));
#124=DIRECTION('',(1.0,0.0,0.0));
#125= (NAMED_UNIT(#70)LENGTH_UNIT()SI_UNIT(.MILLI.,.METRE.));
#126=SURFACE_SIDE_STYLE('',(#168));
#127=EDGE_LOOP('',(#169,#170,#171,#172));
#128=AXIS2_PLACEMENT_3D('',#173,#174,#175);
#129=SURFACE_SIDE_STYLE('',(#176));
#130=EDGE_LOOP('',(#177,#178,#179,#180));
#131=AXIS2_PLACEMENT_3D('',#181,#182,#183);
#132=SURFACE_SIDE_STYLE('',(#184));
#133=EDGE_LOOP('',(#185,#186,#187,#188));
#134=EDGE_LOOP('',(#189,#190));
#135=AXIS2_PLACEMENT_3D('',#191,#192,#193);
#136=SURFACE_SIDE_STYLE('',(#194));
#137=EDGE_LOOP('',(#195,#196,#197,#198));
#138=EDGE_LOOP('',(#199,#200));
#139=AXIS2_PLACEMENT_3D('',#201,#202,#203);
#140=SURFACE_SIDE_STYLE('',(#204));
#141=EDGE_LOOP('',(#205,#206,#207,#208));
#142=AXIS2_PLACEMENT_3D('',#209,#210,#211);
#143=SURFACE_SIDE_STYLE('',(#212));
#144=EDGE_LOOP('',(#213,#214,#215,#216));
#145=EDGE_LOOP('',(#217,#218));
#146=AXIS2_PLACEMENT_3D('',#219,#220,#221);
#147=SURFACE_SIDE_STYLE('',(#222));
#148=EDGE_LOOP('',(#223,#224,#225,#226));
#149=EDGE_LOOP('',(#227,#228));
#150=AXIS2_PLACEMENT_3D('',#229,#230,#231);
#151=SURFACE_SIDE_STYLE('',(#232));
#152=EDGE_LOOP('',(#233,#234,#235,#236));
#153=AXIS2_PLACEMENT_3D('',#237,#238,#239);
#154=SURFACE_SIDE_STYLE('',(#240));
#155=EDGE_LOOP('',(#241,#242,#243,#244,#245,#246));
#156=AXIS2_PLACEMENT_3D('',#247,#248,#249);
#157=SURFACE_SIDE_STYLE('',(#250));
#158=EDGE_LOOP('',(#251,#252,#253,#254,#255,#256));
#159=AXIS2_PLACEMENT_3D('',#257,#258,#259);
#160=SURFACE_SIDE_STYLE('',(#260));
#161=EDGE_LOOP('',(#261,#262,#263,#264));
#162=AXIS2_PLACEMENT_3D('',#265,#266,#267);
#163=SURFACE_SIDE_STYLE('',(#268));
#164=EDGE_LOOP('',(#269,#270,#271,#272));
#165=AXIS2_PLACEMENT_3D('',#273,#274,#275);
#166=SURFACE_SIDE_STYLE('',(#276));
#168=SURFACE_STYLE_FILL_AREA(#277);
#169=ORIENTED_EDGE('',*,*,#278,.T.);
#170=ORIENTED_EDGE('',*,*,#279,.T.);
#171=ORIENTED_EDGE('',*,*,#280,.F.);
#172=ORIENTED_EDGE('',*,*,#281,.F.);
#173=CARTESIAN_POINT('',(0.0,15.0,0.0));
#174=DIRECTION('',(1.0,-0.0,0.0));
#175=DIRECTION('',(0.0,0.0,-1.0));
#176=SURFACE_STYLE_FILL_AREA(#282);
#177=ORIENTED_EDGE('',*,*,#283,.F.);
#178=ORIENTED_EDGE('',*,*,#284,.T.);
#179=ORIENTED_EDGE('',*,*,#285,.T.);
#180=ORIENTED_EDGE('',*,*,#286,.F.);
#181=CARTESIAN_POINT('',(15.0,3.0,0.0));
#182=DIRECTION('',(-2.71050543121376E-016,1.0,-0.0));
#183=DIRECTION('',(-1.0,-2.71050543121376E-016,0.0));
#184=SURFACE_STYLE_FILL_AREA(#287);
#185=ORIENTED_EDGE('',*,*,#288,.T.);
#186=ORIENTED_EDGE('',*,*,#289,.F.);
#187=ORIENTED_EDGE('',*,*,#290,.F.);
#188=ORIENTED_EDGE('',*,*,#291,.T.);
#189=ORIENTED_EDGE('',*,*,#278,.F.);
#190=ORIENTED_EDGE('',*,*,#292,.F.);
#191=CARTESIAN_POINT('',(0.0,0.0,15.0));
#192=DIRECTION('',(1.0,0.0,0.0));
#193=DIRECTION('',(0.0,1.0,-0.0));
#194=SURFACE_STYLE_FILL_AREA(#293);
#195=ORIENTED_EDGE('',*,*,#294,.T.);
#196=ORIENTED_EDGE('',*,*,#295,.F.);
#197=ORIENTED_EDGE('',*,*,#296,.F.);
#198=ORIENTED_EDGE('',*,*,#289,.T.);
#199=ORIENTED_EDGE('',*,*,#297,.T.);
#200=ORIENTED_EDGE('',*,*,#283,.T.);
#201=CARTESIAN_POINT('',(0.0,0.0,15.0));
#202=DIRECTION('',(0.0,1.0,0.0));
#203=DIRECTION('',(1.0,0.0,-0.0));
#204=SURFACE_STYLE_FILL_AREA(#298);
#205=ORIENTED_EDGE('',*,*,#299,.T.);
#206=ORIENTED_EDGE('',*,*,#300,.F.);
#207=ORIENTED_EDGE('',*,*,#301,.F.);
#208=ORIENTED_EDGE('',*,*,#295,.T.);
#209=CARTESIAN_POINT('',(30.0,0.0,15.0));
#210=DIRECTION('',(-1.0,0.0,0.0));
#211=DIRECTION('',(0.0,0.0,1.0));
#212=SURFACE_STYLE_FILL_AREA(#302);
#213=ORIENTED_EDGE('',*,*,#303,.T.);
#214=ORIENTED_EDGE('',*,*,#304,.F.);
#215=ORIENTED_EDGE('',*,*,#305,.F.);
#216=ORIENTED_EDGE('',*,*,#300,.T.);
#217=ORIENTED_EDGE('',*,*,#306,.F.);
#218=ORIENTED_EDGE('',*,*,#285,.F.);
#219=CARTESIAN_POINT('',(3.0,3.0,15.0));
#220=DIRECTION('',(1.60622544071927E-017,-1.0,0.0));
#221=DIRECTION('',(0.0,0.0,-1.0));
#222=SURFACE_STYLE_FILL_AREA(#307);
#223=ORIENTED_EDGE('',*,*,#308,.T.);
#224=ORIENTED_EDGE('',*,*,#309,.F.);
#225=ORIENTED_EDGE('',*,*,#310,.F.);
#226=ORIENTED_EDGE('',*,*,#304,.T.);
#227=ORIENTED_EDGE('',*,*,#280,.T.);
#228=ORIENTED_EDGE('',*,*,#311,.T.);
#229=CARTESIAN_POINT('',(3.0,30.0,15.0));
#230=DIRECTION('',(-1.0,-1.28498035257541E-016,0.0));
#231=DIRECTION('',(-1.28498035257541E-016,1.0,0.0));
#232=SURFACE_STYLE_FILL_AREA(#312);
#233=ORIENTED_EDGE('',*,*,#313,.T.);
#234=ORIENTED_EDGE('',*,*,#291,.F.);
#235=ORIENTED_EDGE('',*,*,#314,.F.);
#236=ORIENTED_EDGE('',*,*,#309,.T.);
#237=CARTESIAN_POINT('',(0.0,30.0,15.0));
#238=DIRECTION('',(0.0,-1.0,0.0));
#239=DIRECTION('',(0.0,0.0,-1.0));
#240=SURFACE_STYLE_FILL_AREA(#315);
#241=ORIENTED_EDGE('',*,*,#290,.T.);
#242=ORIENTED_EDGE('',*,*,#296,.T.);
#243=ORIENTED_EDGE('',*,*,#301,.T.);
#244=ORIENTED_EDGE('',*,*,#305,.T.);
#245=ORIENTED_EDGE('',*,*,#310,.T.);
#246=ORIENTED_EDGE('',*,*,#314,.T.);
#247=CARTESIAN_POINT('',(0.0,30.0,15.0));
#248=DIRECTION('',(0.0,0.0,-1.0));
#249=DIRECTION('',(0.0,-1.0,0.0));
#250=SURFACE_STYLE_FILL_AREA(#316);
#251=ORIENTED_EDGE('',*,*,#288,.F.);
#252=ORIENTED_EDGE('',*,*,#313,.F.);
#253=ORIENTED_EDGE('',*,*,#308,.F.);
#254=ORIENTED_EDGE('',*,*,#303,.F.);
#255=ORIENTED_EDGE('',*,*,#299,.F.);
#256=ORIENTED_EDGE('',*,*,#294,.F.);
#257=CARTESIAN_POINT('',(0.0,30.0,-15.0));
#258=DIRECTION('',(0.0,0.0,-1.0));
#259=DIRECTION('',(0.0,-1.0,0.0));
#260=SURFACE_STYLE_FILL_AREA(#317);
#261=ORIENTED_EDGE('',*,*,#284,.F.);
#262=ORIENTED_EDGE('',*,*,#297,.F.);
#263=ORIENTED_EDGE('',*,*,#286,.T.);
#264=ORIENTED_EDGE('',*,*,#306,.T.);
#265=CARTESIAN_POINT('',(15.0,3.0,0.0));
#266=DIRECTION('',(-2.71050543121376E-016,1.0,-0.0));
#267=DIRECTION('',(-1.0,-2.71050543121376E-016,0.0));
#268=SURFACE_STYLE_FILL_AREA(#318);
#269=ORIENTED_EDGE('',*,*,#279,.F.);
#270=ORIENTED_EDGE('',*,*,#292,.T.);
#271=ORIENTED_EDGE('',*,*,#281,.T.);
#272=ORIENTED_EDGE('',*,*,#311,.F.);
#273=CARTESIAN_POINT('',(0.0,15.0,0.0));
#274=DIRECTION('',(1.0,-0.0,0.0));
#275=DIRECTION('',(0.0,0.0,-1.0));
#276=SURFACE_STYLE_FILL_AREA(#319);
#277=FILL_AREA_STYLE('',(#320));
#278=EDGE_CURVE('NONE',#321,#322,#323,.T.);
#279=EDGE_CURVE('NONE',#322,#324,#325,.T.);
#280=EDGE_CURVE('NONE',#326,#324,#327,.T.);
#281=EDGE_CURVE('NONE',#321,#326,#328,.T.);
#282=FILL_AREA_STYLE('',(#329));
#283=EDGE_CURVE('NONE',#330,#331,#332,.T.);
#284=EDGE_CURVE('NONE',#330,#333,#334,.T.);
#285=EDGE_CURVE('NONE',#333,#335,#336,.T.);
#286=EDGE_CURVE('NONE',#331,#335,#337,.T.);
#287=FILL_AREA_STYLE('',(#338));
#288=EDGE_CURVE('NONE',#339,#340,#341,.T.);
#289=EDGE_CURVE('NONE',#342,#340,#343,.T.);
#290=EDGE_CURVE('NONE',#344,#342,#345,.T.);
#291=EDGE_CURVE('NONE',#344,#339,#346,.T.);
#292=EDGE_CURVE('NONE',#322,#321,#347,.T.);
#293=FILL_AREA_STYLE('',(#348));
#294=EDGE_CURVE('NONE',#340,#349,#350,.T.);
#295=EDGE_CURVE('NONE',#351,#349,#352,.T.);
#296=EDGE_CURVE('NONE',#342,#351,#353,.T.);
#297=EDGE_CURVE('NONE',#331,#330,#354,.T.);
#298=FILL_AREA_STYLE('',(#355));
#299=EDGE_CURVE('NONE',#349,#356,#357,.T.);
#300=EDGE_CURVE('NONE',#358,#356,#359,.T.);
#301=EDGE_CURVE('NONE',#351,#358,#360,.T.);
#302=FILL_AREA_STYLE('',(#361));
#303=EDGE_CURVE('NONE',#356,#362,#363,.T.);
#304=EDGE_CURVE('NONE',#364,#362,#365,.T.);
#305=EDGE_CURVE('NONE',#358,#364,#366,.T.);
#306=EDGE_CURVE('NONE',#335,#333,#367,.T.);
#307=FILL_AREA_STYLE('',(#368));
#308=EDGE_CURVE('NONE',#362,#369,#370,.T.);
#309=EDGE_CURVE('NONE',#371,#369,#372,.T.);
#310=EDGE_CURVE('NONE',#364,#371,#373,.T.);
#311=EDGE_CURVE('NONE',#324,#326,#374,.T.);
#312=FILL_AREA_STYLE('',(#375));
#313=EDGE_CURVE('NONE',#369,#339,#376,.T.);
#314=EDGE_CURVE('NONE',#371,#344,#377,.T.);
#315=FILL_AREA_STYLE('',(#378));
#316=FILL_AREA_STYLE('',(#379));
#317=FILL_AREA_STYLE('',(#380));
#318=FILL_AREA_STYLE('',(#381));
#319=FILL_AREA_STYLE('',(#382));
#320=FILL_AREA_STYLE_COLOUR('',#383);
#321=VERTEX_POINT('NONE',#384);
#322=VERTEX_POINT('NONE',#385);
#323=CIRCLE('',#386,3.39999999999999);
#324=VERTEX_POINT('NONE',#387);
#325=LINE('',#388,#389);
#326=VERTEX_POINT('NONE',#390);
#327=CIRCLE('',#391,6.4);
#328=LINE('',#392,#393);
#329=FILL_AREA_STYLE_COLOUR('',#394);
#330=VERTEX_POINT('NONE',#395);
#331=VERTEX_POINT('NONE',#396);
#332=CIRCLE('',#397,3.40000000000003);
#333=VERTEX_POINT('NONE',#398);
#334=LINE('',#399,#400);
#335=VERTEX_POINT('NONE',#401);
#336=CIRCLE('',#402,6.4);
#337=LINE('',#403,#404);
#338=FILL_AREA_STYLE_COLOUR('',#405);
#339=VERTEX_POINT('NONE',#406);
#340=VERTEX_POINT('NONE',#407);
#341=LINE('',#408,#409);
#342=VERTEX_POINT('NONE',#410);
#343=LINE('',#411,#412);
#344=VERTEX_POINT('NONE',#413);
#345=LINE('',#414,#415);
#346=LINE('',#416,#417);
#347=CIRCLE('',#418,3.39999999999999);
#348=FILL_AREA_STYLE_COLOUR('',#419);
#349=VERTEX_POINT('NONE',#420);
#350=LINE('',#421,#422);
#351=VERTEX_POINT('NONE',#423);
#352=LINE('',#424,#425);
#353=LINE('',#426,#427);
#354=CIRCLE('',#428,3.40000000000003);
#355=FILL_AREA_STYLE_COLOUR('',#429);
#356=VERTEX_POINT('NONE',#430);
#357=LINE('',#431,#432);
#358=VERTEX_POINT('NONE',#433);
#359=LINE('',#434,#435);
#360=LINE('',#436,#437);
#361=FILL_AREA_STYLE_COLOUR('',#438);
#362=VERTEX_POINT('NONE',#439);
#363=LINE('',#440,#441);
#364=VERTEX_POINT('NONE',#442);
#365=LINE('',#443,#444);
#366=LINE('',#445,#446);
#367=CIRCLE('',#447,6.4);
#368=FILL_AREA_STYLE_COLOUR('',#448);
#369=VERTEX_POINT('NONE',#449);
#370=LINE('',#450,#451);
#371=VERTEX_POINT('NONE',#452);
#372=LINE('',#453,#454);
#373=LINE('',#455,#456);
#374=CIRCLE('',#457,6.4);
#375=FILL_AREA_STYLE_COLOUR('',#458);
#376=LINE('',#459,#460);
#377=LINE('',#461,#462);
#378=FILL_AREA_STYLE_COLOUR('',#463);
#379=FILL_AREA_STYLE_COLOUR('',#464);
#380=FILL_AREA_STYLE_COLOUR('',#465);
#381=FILL_AREA_STYLE_COLOUR('',#466);
#382=FILL_AREA_STYLE_COLOUR('',#467);
#383=COLOUR_RGB('',0.752941191196442,0.752941191196442,0.752941191196442);
#384=CARTESIAN_POINT('',(0.0,15.0,-3.39999999999999));
#385=CARTESIAN_POINT('',(0.0,15.0,3.39999999999999));
#386=AXIS2_PLACEMENT_3D('',#468,#469,#470);
#387=CARTESIAN_POINT('',(3.0,15.0,6.4));
#388=CARTESIAN_POINT('',(0.0,15.0,3.39999999999999));
#389=VECTOR('',#471,1000.0);
#390=CARTESIAN_POINT('',(3.0,15.0,-6.4));
#391=AXIS2_PLACEMENT_3D('',#472,#473,#474);
#392=CARTESIAN_POINT('',(0.0,15.0,-3.39999999999999));
#393=VECTOR('',#475,1000.0);
#394=COLOUR_RGB('',0.752941191196442,0.752941191196442,0.752941191196442);
#395=CARTESIAN_POINT('',(18.4,1.8697823770638E-015,6.00076931582205E-016));
#396=CARTESIAN_POINT('',(11.6,-1.35058901086995E-016,0.0));
#397=AXIS2_PLACEMENT_3D('',#476,#477,#478);
#398=CARTESIAN_POINT('',(21.4,3.0,7.83773951454306E-016));
#399=CARTESIAN_POINT('',(21.4,3.0,7.83773951454306E-016));
#400=VECTOR('',#479,1000.0);
#401=CARTESIAN_POINT('',(8.6,3.0,0.0));
#402=AXIS2_PLACEMENT_3D('',#480,#481,#482);
#403=CARTESIAN_POINT('',(8.6,3.0,0.0));
#404=VECTOR('',#483,1000.0);
#405=COLOUR_RGB('',0.752941191196442,0.752941191196442,0.752941191196442);
#406=CARTESIAN_POINT('',(0.0,30.0,-15.0));
#407=CARTESIAN_POINT('',(0.0,0.0,-15.0));
#408=CARTESIAN_POINT('',(0.0,0.0,-15.0));
#409=VECTOR('',#484,1000.0);
#410=CARTESIAN_POINT('',(0.0,0.0,15.0));
#411=CARTESIAN_POINT('',(0.0,0.0,15.0));
#412=VECTOR('',#485,1000.0);
#413=CARTESIAN_POINT('',(0.0,30.0,15.0));
#414=CARTESIAN_POINT('',(0.0,0.0,15.0));
#415=VECTOR('',#486,1000.0);
#416=CARTESIAN_POINT('',(0.0,30.0,15.0));
#417=VECTOR('',#487,1000.0);
#418=AXIS2_PLACEMENT_3D('',#488,#489,#490);
#419=COLOUR_RGB('',0.752941191196442,0.752941191196442,0.752941191196442);
#420=CARTESIAN_POINT('',(30.0,0.0,-15.0));
#421=CARTESIAN_POINT('',(0.0,0.0,-15.0));
#422=VECTOR('',#491,1000.0);
#423=CARTESIAN_POINT('',(30.0,0.0,15.0));
#424=CARTESIAN_POINT('',(30.0,0.0,15.0));
#425=VECTOR('',#492,1000.0);
#426=CARTESIAN_POINT('',(0.0,0.0,15.0));
#427=VECTOR('',#493,1000.0);
#428=AXIS2_PLACEMENT_3D('',#494,#495,#496);
#429=COLOUR_RGB('',0.752941191196442,0.752941191196442,0.752941191196442);
#430=CARTESIAN_POINT('',(30.0,3.0,-15.0));
#431=CARTESIAN_POINT('',(30.0,0.0,-15.0));
#432=VECTOR('',#497,1000.0);
#433=CARTESIAN_POINT('',(30.0,3.0,15.0));
#434=CARTESIAN_POINT('',(30.0,3.0,15.0));
#435=VECTOR('',#498,1000.0);
#436=CARTESIAN_POINT('',(30.0,0.0,15.0));
#437=VECTOR('',#499,1000.0);
#438=COLOUR_RGB('',0.752941191196442,0.752941191196442,0.752941191196442);
#439=CARTESIAN_POINT('',(3.0,3.0,-15.0));
#440=CARTESIAN_POINT('',(3.0,3.0,-15.0));
#441=VECTOR('',#500,1000.0);
#442=CARTESIAN_POINT('',(3.0,3.0,15.0));
#443=CARTESIAN_POINT('',(3.0,3.0,15.0));
#444=VECTOR('',#501,1000.0);
#445=CARTESIAN_POINT('',(3.0,3.0,15.0));
#446=VECTOR('',#502,1000.0);
#447=AXIS2_PLACEMENT_3D('',#503,#504,#505);
#448=COLOUR_RGB('',0.752941191196442,0.752941191196442,0.752941191196442);
#449=CARTESIAN_POINT('',(3.0,30.0,-15.0));
#450=CARTESIAN_POINT('',(3.0,30.0,-15.0));
#451=VECTOR('',#506,1000.0);
#452=CARTESIAN_POINT('',(3.0,30.0,15.0));
#453=CARTESIAN_POINT('',(3.0,30.0,15.0));
#454=VECTOR('',#507,1000.0);
#455=CARTESIAN_POINT('',(3.0,30.0,15.0));
#456=VECTOR('',#508,1000.0);
#457=AXIS2_PLACEMENT_3D('',#509,#510,#511);
#458=COLOUR_RGB('',0.752941191196442,0.752941191196442,0.752941191196442);
#459=CARTESIAN_POINT('',(0.0,30.0,-15.0));
#460=VECTOR('',#512,1000.0);
#461=CARTESIAN_POINT('',(0.0,30.0,15.0));
#462=VECTOR('',#513,1000.0);
#463=COLOUR_RGB('',0.752941191196442,0.752941191196442,0.752941191196442);
#464=COLOUR_RGB('',0.752941191196442,0.752941191196442,0.752941191196442);
#465=COLOUR_RGB('',0.752941191196442,0.752941191196442,0.752941191196442);
#466=COLOUR_RGB('',0.752941191196442,0.752941191196442,0.752941191196442);
#467=COLOUR_RGB('',0.752941191196442,0.752941191196442,0.752941191196442);
#468=CARTESIAN_POINT('',(0.0,15.0,0.0));
#469=DIRECTION('',(-1.0,0.0,0.0));
#470=DIRECTION('',(0.0,0.0,1.0));
#471=DIRECTION('',(0.707106781186546,8.65956056235495E-017,0.707106781186549));
#472=CARTESIAN_POINT('',(3.0,15.0,0.0));
#473=DIRECTION('',(-1.0,0.0,0.0));
#474=DIRECTION('',(0.0,0.0,1.0));
#475=DIRECTION('',(0.707106781186546,0.0,-0.707106781186549));
#476=CARTESIAN_POINT('',(15.0,8.67361737988403E-016,0.0));
#477=DIRECTION('',(-2.94829599728055E-016,1.0,0.0));
#478=DIRECTION('',(-1.0,-2.94829599728055E-016,0.0));
#479=DIRECTION('',(0.707106781186544,0.707106781186551,8.65956056235488E-017));
#480=CARTESIAN_POINT('',(15.0,3.0,0.0));
#481=DIRECTION('',(-2.71050543121376E-016,1.0,0.0));
#482=DIRECTION('',(-1.0,-2.71050543121376E-016,0.0));
#483=DIRECTION('',(-0.707106781186544,0.707106781186551,0.0));
#484=DIRECTION('',(-0.0,-1.0,-0.0));
#485=DIRECTION('',(-0.0,-0.0,-1.0));
#486=DIRECTION('',(-0.0,-1.0,-0.0));
#487=DIRECTION('',(-0.0,-0.0,-1.0));
#488=CARTESIAN_POINT('',(0.0,15.0,0.0));
#489=DIRECTION('',(-1.0,0.0,0.0));
#490=DIRECTION('',(0.0,0.0,1.0));
#491=DIRECTION('',(1.0,0.0,0.0));
#492=DIRECTION('',(-0.0,-0.0,-1.0));
#493=DIRECTION('',(1.0,0.0,0.0));
#494=CARTESIAN_POINT('',(15.0,8.67361737988403E-016,0.0));
#495=DIRECTION('',(-2.94829599728055E-016,1.0,0.0));
#496=DIRECTION('',(-1.0,-2.94829599728055E-016,0.0));
#497=DIRECTION('',(0.0,1.0,0.0));
#498=DIRECTION('',(-0.0,-0.0,-1.0));
#499=DIRECTION('',(0.0,1.0,0.0));
#500=DIRECTION('',(-1.0,-1.60622544071927E-017,-0.0));
#501=DIRECTION('',(-0.0,-0.0,-1.0));
#502=DIRECTION('',(-1.0,-1.60622544071927E-017,-0.0));
#503=CARTESIAN_POINT('',(15.0,3.0,0.0));
#504=DIRECTION('',(-2.71050543121376E-016,1.0,0.0));
#505=DIRECTION('',(-1.0,-2.71050543121376E-016,0.0));
#506=DIRECTION('',(-1.28498035257541E-016,1.0,-0.0));
#507=DIRECTION('',(-0.0,-0.0,-1.0));
#508=DIRECTION('',(-1.28498035257541E-016,1.0,-0.0));
#509=CARTESIAN_POINT('',(3.0,15.0,0.0));
#510=DIRECTION('',(-1.0,0.0,0.0));
#511=DIRECTION('',(0.0,0.0,1.0));
#512=DIRECTION('',(-1.0,-0.0,-0.0));
#513=DIRECTION('',(-1.0,-0.0,-0.0));
#514=PRESENTATION_LAYER_ASSIGNMENT('NONE','',(#61));
ENDSEC;
END-ISO-10303-21;
