ISO-10303-21;
HEADER;
FILE_DESCRIPTION(('STEP AP214'),'1');
FILE_NAME('fath_093wu401s.stp','2017-06-02T14:18:00',('TraceParts'),('TraceParts S.A.'),'Spatial InterOp 3D',' ',' ');
FILE_SCHEMA(('automotive_design'));
ENDSEC;
DATA;
#1=MECHANICAL_DESIGN_GEOMETRIC_PRESENTATION_REPRESENTATION(' ',(#10,#11,#12,#13,#14,#15,#16,#17,#18,#19,#20,#21,#22,#23,#24,#25,#26),#6);
#2=PRODUCT_DEFINITION_CONTEXT('',#27,'design');
#3=APPLICATION_PROTOCOL_DEFINITION('INTERNATIONAL STANDARD','automotive_design',1994,#27);
#4=PRODUCT_CATEGORY_RELATIONSHIP('NONE','NONE',#28,#29);
#5=SHAPE_DEFINITION_REPRESENTATION(#30,#31);
#6= (GEOMETRIC_REPRESENTATION_CONTEXT(3)GLOBAL_UNCERTAINTY_ASSIGNED_CONTEXT((#34))GLOBAL_UNIT_ASSIGNED_CONTEXT((#36,#37,#38))REPRESENTATION_CONTEXT('NONE','WORKSPACE'));
#10=STYLED_ITEM('',(#40),#41);
#11=STYLED_ITEM('',(#42),#43);
#12=STYLED_ITEM('',(#44),#45);
#13=STYLED_ITEM('',(#46),#47);
#14=STYLED_ITEM('',(#48),#49);
#15=STYLED_ITEM('',(#50),#51);
#16=STYLED_ITEM('',(#52),#53);
#17=STYLED_ITEM('',(#54),#55);
#18=STYLED_ITEM('',(#56),#57);
#19=STYLED_ITEM('',(#58),#59);
#20=STYLED_ITEM('',(#60),#61);
#21=STYLED_ITEM('',(#62),#63);
#22=STYLED_ITEM('',(#64),#65);
#23=STYLED_ITEM('',(#66),#67);
#24=STYLED_ITEM('',(#68),#69);
#25=STYLED_ITEM('',(#70),#71);
#26=STYLED_ITEM('',(#72),#73);
#27=APPLICATION_CONTEXT(' ');
#28=PRODUCT_CATEGORY('part','NONE');
#29=PRODUCT_RELATED_PRODUCT_CATEGORY('detail',' ',(#74));
#30=PRODUCT_DEFINITION_SHAPE('NONE','NONE',#75);
#31=ADVANCED_BREP_SHAPE_REPRESENTATION('fath_093wu401s',(#73,#76),#6);
#34=UNCERTAINTY_MEASURE_WITH_UNIT(LENGTH_MEASURE(1.0E-006),#36,'','');
#36= (CONVERSION_BASED_UNIT('MILLIMETRE',#79)LENGTH_UNIT()NAMED_UNIT(#82));
#37= (NAMED_UNIT(#84)PLANE_ANGLE_UNIT()SI_UNIT($,.RADIAN.));
#38= (NAMED_UNIT(#84)SOLID_ANGLE_UNIT()SI_UNIT($,.STERADIAN.));
#40=PRESENTATION_STYLE_ASSIGNMENT((#90));
#41=ADVANCED_FACE('NONE',(#91),#92,.F.);
#42=PRESENTATION_STYLE_ASSIGNMENT((#93));
#43=ADVANCED_FACE('NONE',(#94),#95,.F.);
#44=PRESENTATION_STYLE_ASSIGNMENT((#96));
#45=ADVANCED_FACE('NONE',(#97),#98,.F.);
#46=PRESENTATION_STYLE_ASSIGNMENT((#99));
#47=ADVANCED_FACE('NONE',(#100),#101,.F.);
#48=PRESENTATION_STYLE_ASSIGNMENT((#102));
#49=ADVANCED_FACE('NONE',(#103),#104,.F.);
#50=PRESENTATION_STYLE_ASSIGNMENT((#105));
#51=ADVANCED_FACE('NONE',(#106),#107,.F.);
#52=PRESENTATION_STYLE_ASSIGNMENT((#108));
#53=ADVANCED_FACE('NONE',(#109),#110,.T.);
#54=PRESENTATION_STYLE_ASSIGNMENT((#111));
#55=ADVANCED_FACE('NONE',(#112,#113),#114,.F.);
#56=PRESENTATION_STYLE_ASSIGNMENT((#115));
#57=ADVANCED_FACE('NONE',(#116,#117),#118,.F.);
#58=PRESENTATION_STYLE_ASSIGNMENT((#119));
#59=ADVANCED_FACE('NONE',(#120),#121,.F.);
#60=PRESENTATION_STYLE_ASSIGNMENT((#122));
#61=ADVANCED_FACE('NONE',(#123,#124),#125,.T.);
#62=PRESENTATION_STYLE_ASSIGNMENT((#126));
#63=ADVANCED_FACE('NONE',(#127,#128),#129,.T.);
#64=PRESENTATION_STYLE_ASSIGNMENT((#130));
#65=ADVANCED_FACE('NONE',(#131),#132,.F.);
#66=PRESENTATION_STYLE_ASSIGNMENT((#133));
#67=ADVANCED_FACE('NONE',(#134),#135,.F.);
#68=PRESENTATION_STYLE_ASSIGNMENT((#136));
#69=ADVANCED_FACE('NONE',(#137),#138,.F.);
#70=PRESENTATION_STYLE_ASSIGNMENT((#139));
#71=ADVANCED_FACE('NONE',(#140),#141,.F.);
#72=PRESENTATION_STYLE_ASSIGNMENT((#142));
#73=MANIFOLD_SOLID_BREP('fath_093wu401s',#143);
#74=PRODUCT('fath_093wu401s','fath_093wu401s','PART-fath_093wu401s-DESC',(#144));
#75=PRODUCT_DEFINITION('NONE','NONE',#145,#2);
#76=AXIS2_PLACEMENT_3D('',#146,#147,#148);
#79=LENGTH_MEASURE_WITH_UNIT(LENGTH_MEASURE(1.0),#149);
#82=DIMENSIONAL_EXPONENTS(1.0,0.0,0.0,0.0,0.0,0.0,0.0);
#84=DIMENSIONAL_EXPONENTS(0.0,0.0,0.0,0.0,0.0,0.0,0.0);
#90=SURFACE_STYLE_USAGE(.BOTH.,#150);
#91=FACE_OUTER_BOUND('',#151,.T.);
#92=CONICAL_SURFACE('',#152,4.2,0.785398163397443);
#93=SURFACE_STYLE_USAGE(.BOTH.,#153);
#94=FACE_OUTER_BOUND('',#154,.T.);
#95=CONICAL_SURFACE('',#155,4.2,0.785398163397443);
#96=SURFACE_STYLE_USAGE(.BOTH.,#156);
#97=FACE_OUTER_BOUND('',#157,.T.);
#98=CYLINDRICAL_SURFACE('',#158,4.2);
#99=SURFACE_STYLE_USAGE(.BOTH.,#159);
#100=FACE_OUTER_BOUND('',#160,.T.);
#101=CYLINDRICAL_SURFACE('',#161,4.2);
#102=SURFACE_STYLE_USAGE(.BOTH.,#162);
#103=FACE_OUTER_BOUND('',#163,.T.);
#104=PLANE('',#164);
#105=SURFACE_STYLE_USAGE(.BOTH.,#165);
#106=FACE_OUTER_BOUND('',#166,.T.);
#107=PLANE('',#167);
#108=SURFACE_STYLE_USAGE(.BOTH.,#168);
#109=FACE_OUTER_BOUND('',#169,.T.);
#110=PLANE('',#170);
#111=SURFACE_STYLE_USAGE(.BOTH.,#171);
#112=FACE_OUTER_BOUND('',#172,.T.);
#113=FACE_BOUND('',#173,.T.);
#114=PLANE('',#174);
#115=SURFACE_STYLE_USAGE(.BOTH.,#175);
#116=FACE_OUTER_BOUND('',#176,.T.);
#117=FACE_BOUND('',#177,.T.);
#118=PLANE('',#178);
#119=SURFACE_STYLE_USAGE(.BOTH.,#179);
#120=FACE_OUTER_BOUND('',#180,.T.);
#121=PLANE('',#181);
#122=SURFACE_STYLE_USAGE(.BOTH.,#182);
#123=FACE_OUTER_BOUND('',#183,.T.);
#124=FACE_BOUND('',#184,.T.);
#125=PLANE('',#185);
#126=SURFACE_STYLE_USAGE(.BOTH.,#186);
#127=FACE_OUTER_BOUND('',#187,.T.);
#128=FACE_BOUND('',#188,.T.);
#129=PLANE('',#189);
#130=SURFACE_STYLE_USAGE(.BOTH.,#190);
#131=FACE_OUTER_BOUND('',#191,.T.);
#132=CYLINDRICAL_SURFACE('',#192,4.2);
#133=SURFACE_STYLE_USAGE(.BOTH.,#193);
#134=FACE_OUTER_BOUND('',#194,.T.);
#135=CYLINDRICAL_SURFACE('',#195,4.2);
#136=SURFACE_STYLE_USAGE(.BOTH.,#196);
#137=FACE_OUTER_BOUND('',#197,.T.);
#138=CONICAL_SURFACE('',#198,4.2,0.785398163397443);
#139=SURFACE_STYLE_USAGE(.BOTH.,#199);
#140=FACE_OUTER_BOUND('',#200,.T.);
#141=CONICAL_SURFACE('',#201,4.2,0.785398163397443);
#142=SURFACE_STYLE_USAGE(.BOTH.,#202);
#143=CLOSED_SHELL('',(#41,#43,#45,#47,#49,#51,#53,#55,#57,#59,#61,#63,#65,#67,#69,#71));
#144=PRODUCT_CONTEXT('',#27,'mechanical');
#145=PRODUCT_DEFINITION_FORMATION_WITH_SPECIFIED_SOURCE(' ','NONE',#74,.NOT_KNOWN.);
#146=CARTESIAN_POINT('',(0.0,0.0,0.0));
#147=DIRECTION('',(0.0,0.0,1.0));
#148=DIRECTION('',(1.0,0.0,0.0));
#149= (NAMED_UNIT(#82)LENGTH_UNIT()SI_UNIT(.MILLI.,.METRE.));
#150=SURFACE_SIDE_STYLE('',(#204));
#151=EDGE_LOOP('',(#205,#206,#207,#208));
#152=AXIS2_PLACEMENT_3D('',#209,#210,#211);
#153=SURFACE_SIDE_STYLE('',(#212));
#154=EDGE_LOOP('',(#213,#214,#215,#216));
#155=AXIS2_PLACEMENT_3D('',#217,#218,#219);
#156=SURFACE_SIDE_STYLE('',(#220));
#157=EDGE_LOOP('',(#221,#222,#223,#224));
#158=AXIS2_PLACEMENT_3D('',#225,#226,#227);
#159=SURFACE_SIDE_STYLE('',(#228));
#160=EDGE_LOOP('',(#229,#230,#231,#232));
#161=AXIS2_PLACEMENT_3D('',#233,#234,#235);
#162=SURFACE_SIDE_STYLE('',(#236));
#163=EDGE_LOOP('',(#237,#238,#239,#240));
#164=AXIS2_PLACEMENT_3D('',#241,#242,#243);
#165=SURFACE_SIDE_STYLE('',(#244));
#166=EDGE_LOOP('',(#245,#246,#247,#248,#249,#250));
#167=AXIS2_PLACEMENT_3D('',#251,#252,#253);
#168=SURFACE_SIDE_STYLE('',(#254));
#169=EDGE_LOOP('',(#255,#256,#257,#258,#259,#260));
#170=AXIS2_PLACEMENT_3D('',#261,#262,#263);
#171=SURFACE_SIDE_STYLE('',(#264));
#172=EDGE_LOOP('',(#265,#266,#267,#268));
#173=EDGE_LOOP('',(#269,#270));
#174=AXIS2_PLACEMENT_3D('',#271,#272,#273);
#175=SURFACE_SIDE_STYLE('',(#274));
#176=EDGE_LOOP('',(#275,#276,#277,#278));
#177=EDGE_LOOP('',(#279,#280));
#178=AXIS2_PLACEMENT_3D('',#281,#282,#283);
#179=SURFACE_SIDE_STYLE('',(#284));
#180=EDGE_LOOP('',(#285,#286,#287,#288));
#181=AXIS2_PLACEMENT_3D('',#289,#290,#291);
#182=SURFACE_SIDE_STYLE('',(#292));
#183=EDGE_LOOP('',(#293,#294,#295,#296));
#184=EDGE_LOOP('',(#297,#298));
#185=AXIS2_PLACEMENT_3D('',#299,#300,#301);
#186=SURFACE_SIDE_STYLE('',(#302));
#187=EDGE_LOOP('',(#303,#304,#305,#306));
#188=EDGE_LOOP('',(#307,#308));
#189=AXIS2_PLACEMENT_3D('',#309,#310,#311);
#190=SURFACE_SIDE_STYLE('',(#312));
#191=EDGE_LOOP('',(#313,#314,#315,#316));
#192=AXIS2_PLACEMENT_3D('',#317,#318,#319);
#193=SURFACE_SIDE_STYLE('',(#320));
#194=EDGE_LOOP('',(#321,#322,#323,#324));
#195=AXIS2_PLACEMENT_3D('',#325,#326,#327);
#196=SURFACE_SIDE_STYLE('',(#328));
#197=EDGE_LOOP('',(#329,#330,#331,#332));
#198=AXIS2_PLACEMENT_3D('',#333,#334,#335);
#199=SURFACE_SIDE_STYLE('',(#336));
#200=EDGE_LOOP('',(#337,#338,#339,#340));
#201=AXIS2_PLACEMENT_3D('',#341,#342,#343);
#202=SURFACE_SIDE_STYLE('',(#344));
#204=SURFACE_STYLE_FILL_AREA(#345);
#205=ORIENTED_EDGE('',*,*,#346,.F.);
#206=ORIENTED_EDGE('',*,*,#347,.T.);
#207=ORIENTED_EDGE('',*,*,#348,.F.);
#208=ORIENTED_EDGE('',*,*,#349,.F.);
#209=CARTESIAN_POINT('',(20.0,0.449999999999919,20.0));
#210=DIRECTION('',(-0.0,1.0,-0.0));
#211=DIRECTION('',(0.0,0.0,1.0));
#212=SURFACE_STYLE_FILL_AREA(#350);
#213=ORIENTED_EDGE('',*,*,#351,.F.);
#214=ORIENTED_EDGE('',*,*,#352,.T.);
#215=ORIENTED_EDGE('',*,*,#353,.F.);
#216=ORIENTED_EDGE('',*,*,#354,.F.);
#217=CARTESIAN_POINT('',(0.449999999999919,20.0,20.0));
#218=DIRECTION('',(1.0,-0.0,0.0));
#219=DIRECTION('',(0.0,0.0,-1.0));
#220=SURFACE_STYLE_FILL_AREA(#355);
#221=ORIENTED_EDGE('',*,*,#356,.F.);
#222=ORIENTED_EDGE('',*,*,#357,.T.);
#223=ORIENTED_EDGE('',*,*,#351,.T.);
#224=ORIENTED_EDGE('',*,*,#358,.F.);
#225=CARTESIAN_POINT('',(0.0,20.0,20.0));
#226=DIRECTION('',(-1.0,0.0,0.0));
#227=DIRECTION('',(0.0,0.0,-1.0));
#228=SURFACE_STYLE_FILL_AREA(#359);
#229=ORIENTED_EDGE('',*,*,#360,.F.);
#230=ORIENTED_EDGE('',*,*,#361,.T.);
#231=ORIENTED_EDGE('',*,*,#346,.T.);
#232=ORIENTED_EDGE('',*,*,#362,.F.);
#233=CARTESIAN_POINT('',(20.0,0.0,20.0));
#234=DIRECTION('',(0.0,-1.0,0.0));
#235=DIRECTION('',(0.0,0.0,1.0));
#236=SURFACE_STYLE_FILL_AREA(#363);
#237=ORIENTED_EDGE('',*,*,#364,.F.);
#238=ORIENTED_EDGE('',*,*,#365,.F.);
#239=ORIENTED_EDGE('',*,*,#366,.T.);
#240=ORIENTED_EDGE('',*,*,#367,.T.);
#241=CARTESIAN_POINT('',(40.0,0.0,40.0));
#242=DIRECTION('',(-1.0,0.0,0.0));
#243=DIRECTION('',(0.0,0.0,1.0));
#244=SURFACE_STYLE_FILL_AREA(#368);
#245=ORIENTED_EDGE('',*,*,#369,.F.);
#246=ORIENTED_EDGE('',*,*,#370,.T.);
#247=ORIENTED_EDGE('',*,*,#371,.T.);
#248=ORIENTED_EDGE('',*,*,#372,.T.);
#249=ORIENTED_EDGE('',*,*,#365,.T.);
#250=ORIENTED_EDGE('',*,*,#373,.F.);
#251=CARTESIAN_POINT('',(0.0,40.0,40.0));
#252=DIRECTION('',(0.0,0.0,-1.0));
#253=DIRECTION('',(0.0,-1.0,0.0));
#254=SURFACE_STYLE_FILL_AREA(#374);
#255=ORIENTED_EDGE('',*,*,#375,.F.);
#256=ORIENTED_EDGE('',*,*,#376,.T.);
#257=ORIENTED_EDGE('',*,*,#377,.T.);
#258=ORIENTED_EDGE('',*,*,#367,.F.);
#259=ORIENTED_EDGE('',*,*,#378,.F.);
#260=ORIENTED_EDGE('',*,*,#379,.F.);
#261=CARTESIAN_POINT('',(0.0,40.0,0.0));
#262=DIRECTION('',(0.0,0.0,-1.0));
#263=DIRECTION('',(0.0,-1.0,0.0));
#264=SURFACE_STYLE_FILL_AREA(#380);
#265=ORIENTED_EDGE('',*,*,#379,.T.);
#266=ORIENTED_EDGE('',*,*,#381,.F.);
#267=ORIENTED_EDGE('',*,*,#371,.F.);
#268=ORIENTED_EDGE('',*,*,#382,.T.);
#269=ORIENTED_EDGE('',*,*,#383,.T.);
#270=ORIENTED_EDGE('',*,*,#356,.T.);
#271=CARTESIAN_POINT('',(0.0,0.0,40.0));
#272=DIRECTION('',(1.0,0.0,0.0));
#273=DIRECTION('',(0.0,1.0,-0.0));
#274=SURFACE_STYLE_FILL_AREA(#384);
#275=ORIENTED_EDGE('',*,*,#378,.T.);
#276=ORIENTED_EDGE('',*,*,#366,.F.);
#277=ORIENTED_EDGE('',*,*,#372,.F.);
#278=ORIENTED_EDGE('',*,*,#381,.T.);
#279=ORIENTED_EDGE('',*,*,#385,.T.);
#280=ORIENTED_EDGE('',*,*,#360,.T.);
#281=CARTESIAN_POINT('',(0.0,0.0,40.0));
#282=DIRECTION('',(0.0,1.0,0.0));
#283=DIRECTION('',(1.0,0.0,-0.0));
#284=SURFACE_STYLE_FILL_AREA(#386);
#285=ORIENTED_EDGE('',*,*,#370,.F.);
#286=ORIENTED_EDGE('',*,*,#387,.T.);
#287=ORIENTED_EDGE('',*,*,#375,.T.);
#288=ORIENTED_EDGE('',*,*,#382,.F.);
#289=CARTESIAN_POINT('',(0.0,40.0,40.0));
#290=DIRECTION('',(0.0,-1.0,0.0));
#291=DIRECTION('',(0.0,0.0,-1.0));
#292=SURFACE_STYLE_FILL_AREA(#388);
#293=ORIENTED_EDGE('',*,*,#376,.F.);
#294=ORIENTED_EDGE('',*,*,#387,.F.);
#295=ORIENTED_EDGE('',*,*,#369,.T.);
#296=ORIENTED_EDGE('',*,*,#389,.T.);
#297=ORIENTED_EDGE('',*,*,#353,.T.);
#298=ORIENTED_EDGE('',*,*,#390,.T.);
#299=CARTESIAN_POINT('',(5.0,0.0,40.0));
#300=DIRECTION('',(1.0,0.0,0.0));
#301=DIRECTION('',(0.0,1.0,-0.0));
#302=SURFACE_STYLE_FILL_AREA(#391);
#303=ORIENTED_EDGE('',*,*,#377,.F.);
#304=ORIENTED_EDGE('',*,*,#389,.F.);
#305=ORIENTED_EDGE('',*,*,#373,.T.);
#306=ORIENTED_EDGE('',*,*,#364,.T.);
#307=ORIENTED_EDGE('',*,*,#348,.T.);
#308=ORIENTED_EDGE('',*,*,#392,.T.);
#309=CARTESIAN_POINT('',(0.0,5.0,40.0));
#310=DIRECTION('',(0.0,1.0,0.0));
#311=DIRECTION('',(1.0,0.0,-0.0));
#312=SURFACE_STYLE_FILL_AREA(#393);
#313=ORIENTED_EDGE('',*,*,#361,.F.);
#314=ORIENTED_EDGE('',*,*,#385,.F.);
#315=ORIENTED_EDGE('',*,*,#362,.T.);
#316=ORIENTED_EDGE('',*,*,#394,.T.);
#317=CARTESIAN_POINT('',(20.0,0.0,20.0));
#318=DIRECTION('',(0.0,-1.0,0.0));
#319=DIRECTION('',(0.0,0.0,1.0));
#320=SURFACE_STYLE_FILL_AREA(#395);
#321=ORIENTED_EDGE('',*,*,#357,.F.);
#322=ORIENTED_EDGE('',*,*,#383,.F.);
#323=ORIENTED_EDGE('',*,*,#358,.T.);
#324=ORIENTED_EDGE('',*,*,#396,.T.);
#325=CARTESIAN_POINT('',(0.0,20.0,20.0));
#326=DIRECTION('',(-1.0,0.0,0.0));
#327=DIRECTION('',(0.0,0.0,-1.0));
#328=SURFACE_STYLE_FILL_AREA(#397);
#329=ORIENTED_EDGE('',*,*,#352,.F.);
#330=ORIENTED_EDGE('',*,*,#396,.F.);
#331=ORIENTED_EDGE('',*,*,#354,.T.);
#332=ORIENTED_EDGE('',*,*,#390,.F.);
#333=CARTESIAN_POINT('',(0.449999999999919,20.0,20.0));
#334=DIRECTION('',(1.0,-0.0,0.0));
#335=DIRECTION('',(0.0,0.0,-1.0));
#336=SURFACE_STYLE_FILL_AREA(#398);
#337=ORIENTED_EDGE('',*,*,#347,.F.);
#338=ORIENTED_EDGE('',*,*,#394,.F.);
#339=ORIENTED_EDGE('',*,*,#349,.T.);
#340=ORIENTED_EDGE('',*,*,#392,.F.);
#341=CARTESIAN_POINT('',(20.0,0.449999999999919,20.0));
#342=DIRECTION('',(-0.0,1.0,-0.0));
#343=DIRECTION('',(0.0,0.0,1.0));
#344=SURFACE_STYLE_FILL_AREA(#399);
#345=FILL_AREA_STYLE('',(#400));
#346=EDGE_CURVE('NONE',#401,#402,#403,.T.);
#347=EDGE_CURVE('NONE',#401,#404,#405,.T.);
#348=EDGE_CURVE('NONE',#406,#404,#407,.T.);
#349=EDGE_CURVE('NONE',#402,#406,#408,.T.);
#350=FILL_AREA_STYLE('',(#409));
#351=EDGE_CURVE('NONE',#410,#411,#412,.T.);
#352=EDGE_CURVE('NONE',#410,#413,#414,.T.);
#353=EDGE_CURVE('NONE',#415,#413,#416,.T.);
#354=EDGE_CURVE('NONE',#411,#415,#417,.T.);
#355=FILL_AREA_STYLE('',(#418));
#356=EDGE_CURVE('NONE',#419,#420,#421,.T.);
#357=EDGE_CURVE('NONE',#419,#410,#422,.T.);
#358=EDGE_CURVE('NONE',#420,#411,#423,.T.);
#359=FILL_AREA_STYLE('',(#424));
#360=EDGE_CURVE('NONE',#425,#426,#427,.T.);
#361=EDGE_CURVE('NONE',#425,#401,#428,.T.);
#362=EDGE_CURVE('NONE',#426,#402,#429,.T.);
#363=FILL_AREA_STYLE('',(#430));
#364=EDGE_CURVE('NONE',#431,#432,#433,.T.);
#365=EDGE_CURVE('NONE',#434,#431,#435,.T.);
#366=EDGE_CURVE('NONE',#434,#436,#437,.T.);
#367=EDGE_CURVE('NONE',#436,#432,#438,.T.);
#368=FILL_AREA_STYLE('',(#439));
#369=EDGE_CURVE('NONE',#440,#441,#442,.T.);
#370=EDGE_CURVE('NONE',#440,#443,#444,.T.);
#371=EDGE_CURVE('NONE',#443,#445,#446,.T.);
#372=EDGE_CURVE('NONE',#445,#434,#447,.T.);
#373=EDGE_CURVE('NONE',#441,#431,#448,.T.);
#374=FILL_AREA_STYLE('',(#449));
#375=EDGE_CURVE('NONE',#450,#451,#452,.T.);
#376=EDGE_CURVE('NONE',#450,#453,#454,.T.);
#377=EDGE_CURVE('NONE',#453,#432,#455,.T.);
#378=EDGE_CURVE('NONE',#456,#436,#457,.T.);
#379=EDGE_CURVE('NONE',#451,#456,#458,.T.);
#380=FILL_AREA_STYLE('',(#459));
#381=EDGE_CURVE('NONE',#445,#456,#460,.T.);
#382=EDGE_CURVE('NONE',#443,#451,#461,.T.);
#383=EDGE_CURVE('NONE',#420,#419,#462,.T.);
#384=FILL_AREA_STYLE('',(#463));
#385=EDGE_CURVE('NONE',#426,#425,#464,.T.);
#386=FILL_AREA_STYLE('',(#465));
#387=EDGE_CURVE('NONE',#440,#450,#466,.T.);
#388=FILL_AREA_STYLE('',(#467));
#389=EDGE_CURVE('NONE',#441,#453,#468,.T.);
#390=EDGE_CURVE('NONE',#413,#415,#469,.T.);
#391=FILL_AREA_STYLE('',(#470));
#392=EDGE_CURVE('NONE',#404,#406,#471,.T.);
#393=FILL_AREA_STYLE('',(#472));
#394=EDGE_CURVE('NONE',#402,#401,#473,.T.);
#395=FILL_AREA_STYLE('',(#474));
#396=EDGE_CURVE('NONE',#411,#410,#475,.T.);
#397=FILL_AREA_STYLE('',(#476));
#398=FILL_AREA_STYLE('',(#477));
#399=FILL_AREA_STYLE('',(#478));
#400=FILL_AREA_STYLE_COLOUR('',#479);
#401=VERTEX_POINT('NONE',#480);
#402=VERTEX_POINT('NONE',#481);
#403=CIRCLE('',#482,4.2);
#404=VERTEX_POINT('NONE',#483);
#405=LINE('',#484,#485);
#406=VERTEX_POINT('NONE',#486);
#407=CIRCLE('',#487,8.75000000000003);
#408=LINE('',#488,#489);
#409=FILL_AREA_STYLE_COLOUR('',#490);
#410=VERTEX_POINT('NONE',#491);
#411=VERTEX_POINT('NONE',#492);
#412=CIRCLE('',#493,4.2);
#413=VERTEX_POINT('NONE',#494);
#414=LINE('',#495,#496);
#415=VERTEX_POINT('NONE',#497);
#416=CIRCLE('',#498,8.75000000000003);
#417=LINE('',#499,#500);
#418=FILL_AREA_STYLE_COLOUR('',#501);
#419=VERTEX_POINT('NONE',#502);
#420=VERTEX_POINT('NONE',#503);
#421=CIRCLE('',#504,4.2);
#422=LINE('',#505,#506);
#423=LINE('',#507,#508);
#424=FILL_AREA_STYLE_COLOUR('',#509);
#425=VERTEX_POINT('NONE',#510);
#426=VERTEX_POINT('NONE',#511);
#427=CIRCLE('',#512,4.2);
#428=LINE('',#513,#514);
#429=LINE('',#515,#516);
#430=FILL_AREA_STYLE_COLOUR('',#517);
#431=VERTEX_POINT('NONE',#518);
#432=VERTEX_POINT('NONE',#519);
#433=LINE('',#520,#521);
#434=VERTEX_POINT('NONE',#522);
#435=LINE('',#523,#524);
#436=VERTEX_POINT('NONE',#525);
#437=LINE('',#526,#527);
#438=LINE('',#528,#529);
#439=FILL_AREA_STYLE_COLOUR('',#530);
#440=VERTEX_POINT('NONE',#531);
#441=VERTEX_POINT('NONE',#532);
#442=LINE('',#533,#534);
#443=VERTEX_POINT('NONE',#535);
#444=LINE('',#536,#537);
#445=VERTEX_POINT('NONE',#538);
#446=LINE('',#539,#540);
#447=LINE('',#541,#542);
#448=LINE('',#543,#544);
#449=FILL_AREA_STYLE_COLOUR('',#545);
#450=VERTEX_POINT('NONE',#546);
#451=VERTEX_POINT('NONE',#547);
#452=LINE('',#548,#549);
#453=VERTEX_POINT('NONE',#550);
#454=LINE('',#551,#552);
#455=LINE('',#553,#554);
#456=VERTEX_POINT('NONE',#555);
#457=LINE('',#556,#557);
#458=LINE('',#558,#559);
#459=FILL_AREA_STYLE_COLOUR('',#560);
#460=LINE('',#561,#562);
#461=LINE('',#563,#564);
#462=CIRCLE('',#565,4.2);
#463=FILL_AREA_STYLE_COLOUR('',#566);
#464=CIRCLE('',#567,4.2);
#465=FILL_AREA_STYLE_COLOUR('',#568);
#466=LINE('',#569,#570);
#467=FILL_AREA_STYLE_COLOUR('',#571);
#468=LINE('',#572,#573);
#469=CIRCLE('',#574,8.75000000000003);
#470=FILL_AREA_STYLE_COLOUR('',#575);
#471=CIRCLE('',#576,8.75000000000003);
#472=FILL_AREA_STYLE_COLOUR('',#577);
#473=CIRCLE('',#578,4.2);
#474=FILL_AREA_STYLE_COLOUR('',#579);
#475=CIRCLE('',#580,4.2);
#476=FILL_AREA_STYLE_COLOUR('',#581);
#477=FILL_AREA_STYLE_COLOUR('',#582);
#478=FILL_AREA_STYLE_COLOUR('',#583);
#479=COLOUR_RGB('',0.752941191196442,0.752941191196442,0.752941191196442);
#480=CARTESIAN_POINT('',(20.0,0.449999999999918,15.8));
#481=CARTESIAN_POINT('',(20.0,0.449999999999918,24.2));
#482=AXIS2_PLACEMENT_3D('',#584,#585,#586);
#483=CARTESIAN_POINT('',(20.0,5.0,11.25));
#484=CARTESIAN_POINT('',(20.0,0.449999999999919,15.8));
#485=VECTOR('',#587,1000.0);
#486=CARTESIAN_POINT('',(20.0,5.0,28.75));
#487=AXIS2_PLACEMENT_3D('',#588,#589,#590);
#488=CARTESIAN_POINT('',(20.0,0.449999999999919,24.2));
#489=VECTOR('',#591,1000.0);
#490=COLOUR_RGB('',0.752941191196442,0.752941191196442,0.752941191196442);
#491=CARTESIAN_POINT('',(0.449999999999919,20.0,24.2));
#492=CARTESIAN_POINT('',(0.449999999999919,20.0,15.8));
#493=AXIS2_PLACEMENT_3D('',#592,#593,#594);
#494=CARTESIAN_POINT('',(5.0,20.0,28.75));
#495=CARTESIAN_POINT('',(0.449999999999919,20.0,24.2));
#496=VECTOR('',#595,1000.0);
#497=CARTESIAN_POINT('',(5.0,20.0,11.25));
#498=AXIS2_PLACEMENT_3D('',#596,#597,#598);
#499=CARTESIAN_POINT('',(0.449999999999919,20.0,15.8));
#500=VECTOR('',#599,1000.0);
#501=COLOUR_RGB('',0.752941191196442,0.752941191196442,0.752941191196442);
#502=CARTESIAN_POINT('',(0.0,20.0,24.2));
#503=CARTESIAN_POINT('',(0.0,20.0,15.8));
#504=AXIS2_PLACEMENT_3D('',#600,#601,#602);
#505=CARTESIAN_POINT('',(0.0,20.0,24.2));
#506=VECTOR('',#603,1000.0);
#507=CARTESIAN_POINT('',(0.0,20.0,15.8));
#508=VECTOR('',#604,1000.0);
#509=COLOUR_RGB('',0.752941191196442,0.752941191196442,0.752941191196442);
#510=CARTESIAN_POINT('',(20.0,0.0,15.8));
#511=CARTESIAN_POINT('',(20.0,0.0,24.2));
#512=AXIS2_PLACEMENT_3D('',#605,#606,#607);
#513=CARTESIAN_POINT('',(20.0,0.0,15.8));
#514=VECTOR('',#608,1000.0);
#515=CARTESIAN_POINT('',(20.0,0.0,24.2));
#516=VECTOR('',#609,1000.0);
#517=COLOUR_RGB('',0.752941191196442,0.752941191196442,0.752941191196442);
#518=CARTESIAN_POINT('',(40.0,5.0,40.0));
#519=CARTESIAN_POINT('',(40.0,5.0,0.0));
#520=CARTESIAN_POINT('',(40.0,5.0,40.0));
#521=VECTOR('',#610,1000.0);
#522=CARTESIAN_POINT('',(40.0,0.0,40.0));
#523=CARTESIAN_POINT('',(40.0,0.0,40.0));
#524=VECTOR('',#611,1000.0);
#525=CARTESIAN_POINT('',(40.0,0.0,0.0));
#526=CARTESIAN_POINT('',(40.0,0.0,40.0));
#527=VECTOR('',#612,1000.0);
#528=CARTESIAN_POINT('',(40.0,0.0,0.0));
#529=VECTOR('',#613,1000.0);
#530=COLOUR_RGB('',0.752941191196442,0.752941191196442,0.752941191196442);
#531=CARTESIAN_POINT('',(5.0,40.0,40.0));
#532=CARTESIAN_POINT('',(5.0,5.0,40.0));
#533=CARTESIAN_POINT('',(5.0,40.0,40.0));
#534=VECTOR('',#614,1000.0);
#535=CARTESIAN_POINT('',(0.0,40.0,40.0));
#536=CARTESIAN_POINT('',(0.0,40.0,40.0));
#537=VECTOR('',#615,1000.0);
#538=CARTESIAN_POINT('',(0.0,0.0,40.0));
#539=CARTESIAN_POINT('',(0.0,0.0,40.0));
#540=VECTOR('',#616,1000.0);
#541=CARTESIAN_POINT('',(0.0,0.0,40.0));
#542=VECTOR('',#617,1000.0);
#543=CARTESIAN_POINT('',(0.0,5.0,40.0));
#544=VECTOR('',#618,1000.0);
#545=COLOUR_RGB('',0.752941191196442,0.752941191196442,0.752941191196442);
#546=CARTESIAN_POINT('',(5.0,40.0,0.0));
#547=CARTESIAN_POINT('',(0.0,40.0,0.0));
#548=CARTESIAN_POINT('',(0.0,40.0,0.0));
#549=VECTOR('',#619,1000.0);
#550=CARTESIAN_POINT('',(5.0,5.0,0.0));
#551=CARTESIAN_POINT('',(5.0,40.0,0.0));
#552=VECTOR('',#620,1000.0);
#553=CARTESIAN_POINT('',(0.0,5.0,0.0));
#554=VECTOR('',#621,1000.0);
#555=CARTESIAN_POINT('',(0.0,0.0,0.0));
#556=CARTESIAN_POINT('',(0.0,0.0,0.0));
#557=VECTOR('',#622,1000.0);
#558=CARTESIAN_POINT('',(0.0,0.0,0.0));
#559=VECTOR('',#623,1000.0);
#560=COLOUR_RGB('',0.752941191196442,0.752941191196442,0.752941191196442);
#561=CARTESIAN_POINT('',(0.0,0.0,40.0));
#562=VECTOR('',#624,1000.0);
#563=CARTESIAN_POINT('',(0.0,40.0,40.0));
#564=VECTOR('',#625,1000.0);
#565=AXIS2_PLACEMENT_3D('',#626,#627,#628);
#566=COLOUR_RGB('',0.752941191196442,0.752941191196442,0.752941191196442);
#567=AXIS2_PLACEMENT_3D('',#629,#630,#631);
#568=COLOUR_RGB('',0.752941191196442,0.752941191196442,0.752941191196442);
#569=CARTESIAN_POINT('',(5.0,40.0,40.0));
#570=VECTOR('',#632,1000.0);
#571=COLOUR_RGB('',0.752941191196442,0.752941191196442,0.752941191196442);
#572=CARTESIAN_POINT('',(5.0,5.0,40.0));
#573=VECTOR('',#633,1000.0);
#574=AXIS2_PLACEMENT_3D('',#634,#635,#636);
#575=COLOUR_RGB('',0.752941191196442,0.752941191196442,0.752941191196442);
#576=AXIS2_PLACEMENT_3D('',#637,#638,#639);
#577=COLOUR_RGB('',0.752941191196442,0.752941191196442,0.752941191196442);
#578=AXIS2_PLACEMENT_3D('',#640,#641,#642);
#579=COLOUR_RGB('',0.752941191196442,0.752941191196442,0.752941191196442);
#580=AXIS2_PLACEMENT_3D('',#643,#644,#645);
#581=COLOUR_RGB('',0.752941191196442,0.752941191196442,0.752941191196442);
#582=COLOUR_RGB('',0.752941191196442,0.752941191196442,0.752941191196442);
#583=COLOUR_RGB('',0.752941191196442,0.752941191196442,0.752941191196442);
#584=CARTESIAN_POINT('',(20.0,0.449999999999918,20.0));
#585=DIRECTION('',(0.0,1.0,0.0));
#586=DIRECTION('',(0.0,0.0,1.0));
#587=DIRECTION('',(8.65956056235488E-017,0.707106781186551,-0.707106781186544));
#588=CARTESIAN_POINT('',(20.0,5.0,20.0));
#589=DIRECTION('',(0.0,-1.0,0.0));
#590=DIRECTION('',(0.0,0.0,1.0));
#591=DIRECTION('',(0.0,0.707106781186551,0.707106781186544));
#592=CARTESIAN_POINT('',(0.449999999999919,20.0,20.0));
#593=DIRECTION('',(1.0,0.0,0.0));
#594=DIRECTION('',(0.0,0.0,-1.0));
#595=DIRECTION('',(0.707106781186551,8.65956056235488E-017,0.707106781186544));
#596=CARTESIAN_POINT('',(5.0,20.0,20.0));
#597=DIRECTION('',(-1.0,-0.0,-0.0));
#598=DIRECTION('',(0.0,0.0,-1.0));
#599=DIRECTION('',(0.707106781186551,0.0,-0.707106781186544));
#600=CARTESIAN_POINT('',(0.0,20.0,20.0));
#601=DIRECTION('',(1.0,0.0,0.0));
#602=DIRECTION('',(0.0,0.0,-1.0));
#603=DIRECTION('',(1.0,-0.0,-0.0));
#604=DIRECTION('',(1.0,-0.0,-0.0));
#605=CARTESIAN_POINT('',(20.0,0.0,20.0));
#606=DIRECTION('',(0.0,1.0,0.0));
#607=DIRECTION('',(0.0,0.0,1.0));
#608=DIRECTION('',(-0.0,1.0,-0.0));
#609=DIRECTION('',(-0.0,1.0,-0.0));
#610=DIRECTION('',(0.0,0.0,-1.0));
#611=DIRECTION('',(0.0,1.0,0.0));
#612=DIRECTION('',(-0.0,-0.0,-1.0));
#613=DIRECTION('',(0.0,1.0,0.0));
#614=DIRECTION('',(0.0,-1.0,0.0));
#615=DIRECTION('',(-1.0,-0.0,-0.0));
#616=DIRECTION('',(-0.0,-1.0,-0.0));
#617=DIRECTION('',(1.0,0.0,0.0));
#618=DIRECTION('',(1.0,-0.0,0.0));
#619=DIRECTION('',(-1.0,-0.0,-0.0));
#620=DIRECTION('',(0.0,-1.0,0.0));
#621=DIRECTION('',(1.0,-0.0,0.0));
#622=DIRECTION('',(1.0,0.0,0.0));
#623=DIRECTION('',(-0.0,-1.0,-0.0));
#624=DIRECTION('',(-0.0,-0.0,-1.0));
#625=DIRECTION('',(-0.0,-0.0,-1.0));
#626=CARTESIAN_POINT('',(0.0,20.0,20.0));
#627=DIRECTION('',(1.0,0.0,0.0));
#628=DIRECTION('',(0.0,0.0,-1.0));
#629=CARTESIAN_POINT('',(20.0,0.0,20.0));
#630=DIRECTION('',(0.0,1.0,0.0));
#631=DIRECTION('',(0.0,0.0,1.0));
#632=DIRECTION('',(0.0,0.0,-1.0));
#633=DIRECTION('',(0.0,0.0,-1.0));
#634=CARTESIAN_POINT('',(5.0,20.0,20.0));
#635=DIRECTION('',(-1.0,-0.0,-0.0));
#636=DIRECTION('',(0.0,0.0,-1.0));
#637=CARTESIAN_POINT('',(20.0,5.0,20.0));
#638=DIRECTION('',(0.0,-1.0,0.0));
#639=DIRECTION('',(0.0,0.0,1.0));
#640=CARTESIAN_POINT('',(20.0,0.449999999999918,20.0));
#641=DIRECTION('',(0.0,1.0,0.0));
#642=DIRECTION('',(0.0,0.0,1.0));
#643=CARTESIAN_POINT('',(0.449999999999919,20.0,20.0));
#644=DIRECTION('',(1.0,0.0,0.0));
#645=DIRECTION('',(0.0,0.0,-1.0));
#646=PRESENTATION_LAYER_ASSIGNMENT('NONE','',(#73));
ENDSEC;
END-ISO-10303-21;
