ISO-10303-21;
HEADER;
FILE_DESCRIPTION(('STEP AP214'),'1');
FILE_NAME('fath_093v4080v.stp','2017-10-09T09:41:13',('TraceParts'),('TraceParts S.A.'),'Spatial InterOp 3D',' ',' ');
FILE_SCHEMA(('automotive_design'));
ENDSEC;
DATA;
#1=MECHANICAL_DESIGN_GEOMETRIC_PRESENTATION_REPRESENTATION(' ',(#10,#11,#12,#13,#14,#15,#16,#17,#18,#19,#20,#21,#22,#23,#24,#25,#26,#27,#28),#6);
#2=PRODUCT_DEFINITION_CONTEXT('',#29,'design');
#3=APPLICATION_PROTOCOL_DEFINITION('INTERNATIONAL STANDARD','automotive_design',1994,#29);
#4=PRODUCT_CATEGORY_RELATIONSHIP('NONE','NONE',#30,#31);
#5=SHAPE_DEFINITION_REPRESENTATION(#32,#33);
#6= (GEOMETRIC_REPRESENTATION_CONTEXT(3)GLOBAL_UNCERTAINTY_ASSIGNED_CONTEXT((#36))GLOBAL_UNIT_ASSIGNED_CONTEXT((#38,#39,#40))REPRESENTATION_CONTEXT('NONE','WORKSPACE'));
#10=STYLED_ITEM('',(#42),#43);
#11=STYLED_ITEM('',(#44),#45);
#12=STYLED_ITEM('',(#46),#47);
#13=STYLED_ITEM('',(#48),#49);
#14=STYLED_ITEM('',(#50),#51);
#15=STYLED_ITEM('',(#52),#53);
#16=STYLED_ITEM('',(#54),#55);
#17=STYLED_ITEM('',(#56),#57);
#18=STYLED_ITEM('',(#58),#59);
#19=STYLED_ITEM('',(#60),#61);
#20=STYLED_ITEM('',(#62),#63);
#21=STYLED_ITEM('',(#64),#65);
#22=STYLED_ITEM('',(#66),#67);
#23=STYLED_ITEM('',(#68),#69);
#24=STYLED_ITEM('',(#70),#71);
#25=STYLED_ITEM('',(#72),#73);
#26=STYLED_ITEM('',(#74),#75);
#27=STYLED_ITEM('',(#76),#77);
#28=STYLED_ITEM('',(#78),#79);
#29=APPLICATION_CONTEXT(' ');
#30=PRODUCT_CATEGORY('part','NONE');
#31=PRODUCT_RELATED_PRODUCT_CATEGORY('detail',' ',(#80));
#32=PRODUCT_DEFINITION_SHAPE('NONE','NONE',#81);
#33=ADVANCED_BREP_SHAPE_REPRESENTATION('fath_093v4080v',(#79,#82),#6);
#36=UNCERTAINTY_MEASURE_WITH_UNIT(LENGTH_MEASURE(1.0E-006),#38,'','');
#38= (CONVERSION_BASED_UNIT('MILLIMETRE',#85)LENGTH_UNIT()NAMED_UNIT(#88));
#39= (NAMED_UNIT(#90)PLANE_ANGLE_UNIT()SI_UNIT($,.RADIAN.));
#40= (NAMED_UNIT(#90)SOLID_ANGLE_UNIT()SI_UNIT($,.STERADIAN.));
#42=PRESENTATION_STYLE_ASSIGNMENT((#96));
#43=ADVANCED_FACE('NONE',(#97),#98,.F.);
#44=PRESENTATION_STYLE_ASSIGNMENT((#99));
#45=ADVANCED_FACE('NONE',(#100),#101,.F.);
#46=PRESENTATION_STYLE_ASSIGNMENT((#102));
#47=ADVANCED_FACE('NONE',(#103),#104,.F.);
#48=PRESENTATION_STYLE_ASSIGNMENT((#105));
#49=ADVANCED_FACE('NONE',(#106),#107,.F.);
#50=PRESENTATION_STYLE_ASSIGNMENT((#108));
#51=ADVANCED_FACE('NONE',(#109),#110,.F.);
#52=PRESENTATION_STYLE_ASSIGNMENT((#111));
#53=ADVANCED_FACE('NONE',(#112),#113,.F.);
#54=PRESENTATION_STYLE_ASSIGNMENT((#114));
#55=ADVANCED_FACE('NONE',(#115),#116,.F.);
#56=PRESENTATION_STYLE_ASSIGNMENT((#117));
#57=ADVANCED_FACE('NONE',(#118),#119,.F.);
#58=PRESENTATION_STYLE_ASSIGNMENT((#120));
#59=ADVANCED_FACE('NONE',(#121,#122,#123),#124,.F.);
#60=PRESENTATION_STYLE_ASSIGNMENT((#125));
#61=ADVANCED_FACE('NONE',(#126,#127,#128),#129,.T.);
#62=PRESENTATION_STYLE_ASSIGNMENT((#130));
#63=ADVANCED_FACE('NONE',(#131),#132,.F.);
#64=PRESENTATION_STYLE_ASSIGNMENT((#133));
#65=ADVANCED_FACE('NONE',(#134),#135,.F.);
#66=PRESENTATION_STYLE_ASSIGNMENT((#136));
#67=ADVANCED_FACE('NONE',(#137),#138,.F.);
#68=PRESENTATION_STYLE_ASSIGNMENT((#139));
#69=ADVANCED_FACE('NONE',(#140),#141,.F.);
#70=PRESENTATION_STYLE_ASSIGNMENT((#142));
#71=ADVANCED_FACE('NONE',(#143),#144,.T.);
#72=PRESENTATION_STYLE_ASSIGNMENT((#145));
#73=ADVANCED_FACE('NONE',(#146),#147,.T.);
#74=PRESENTATION_STYLE_ASSIGNMENT((#148));
#75=ADVANCED_FACE('NONE',(#149),#150,.T.);
#76=PRESENTATION_STYLE_ASSIGNMENT((#151));
#77=ADVANCED_FACE('NONE',(#152),#153,.T.);
#78=PRESENTATION_STYLE_ASSIGNMENT((#154));
#79=MANIFOLD_SOLID_BREP('fath_093v4080v',#155);
#80=PRODUCT('fath_093v4080v','fath_093v4080v','PART-fath_093v4080v-DESC',(#156));
#81=PRODUCT_DEFINITION('NONE','NONE',#157,#2);
#82=AXIS2_PLACEMENT_3D('',#158,#159,#160);
#85=LENGTH_MEASURE_WITH_UNIT(LENGTH_MEASURE(1.0),#161);
#88=DIMENSIONAL_EXPONENTS(1.0,0.0,0.0,0.0,0.0,0.0,0.0);
#90=DIMENSIONAL_EXPONENTS(0.0,0.0,0.0,0.0,0.0,0.0,0.0);
#96=SURFACE_STYLE_USAGE(.BOTH.,#162);
#97=FACE_OUTER_BOUND('',#163,.T.);
#98=CONICAL_SURFACE('',#164,4.2,0.785398163397453);
#99=SURFACE_STYLE_USAGE(.BOTH.,#165);
#100=FACE_OUTER_BOUND('',#166,.T.);
#101=CYLINDRICAL_SURFACE('',#167,4.2);
#102=SURFACE_STYLE_USAGE(.BOTH.,#168);
#103=FACE_OUTER_BOUND('',#169,.T.);
#104=CONICAL_SURFACE('',#170,4.2,0.785398163397453);
#105=SURFACE_STYLE_USAGE(.BOTH.,#171);
#106=FACE_OUTER_BOUND('',#172,.T.);
#107=CYLINDRICAL_SURFACE('',#173,4.2);
#108=SURFACE_STYLE_USAGE(.BOTH.,#174);
#109=FACE_OUTER_BOUND('',#175,.T.);
#110=PLANE('',#176);
#111=SURFACE_STYLE_USAGE(.BOTH.,#177);
#112=FACE_OUTER_BOUND('',#178,.T.);
#113=PLANE('',#179);
#114=SURFACE_STYLE_USAGE(.BOTH.,#180);
#115=FACE_OUTER_BOUND('',#181,.T.);
#116=PLANE('',#182);
#117=SURFACE_STYLE_USAGE(.BOTH.,#183);
#118=FACE_OUTER_BOUND('',#184,.T.);
#119=PLANE('',#185);
#120=SURFACE_STYLE_USAGE(.BOTH.,#186);
#121=FACE_OUTER_BOUND('',#187,.T.);
#122=FACE_BOUND('',#188,.T.);
#123=FACE_BOUND('',#189,.T.);
#124=PLANE('',#190);
#125=SURFACE_STYLE_USAGE(.BOTH.,#191);
#126=FACE_OUTER_BOUND('',#192,.T.);
#127=FACE_BOUND('',#193,.T.);
#128=FACE_BOUND('',#194,.T.);
#129=PLANE('',#195);
#130=SURFACE_STYLE_USAGE(.BOTH.,#196);
#131=FACE_OUTER_BOUND('',#197,.T.);
#132=CYLINDRICAL_SURFACE('',#198,4.2);
#133=SURFACE_STYLE_USAGE(.BOTH.,#199);
#134=FACE_OUTER_BOUND('',#200,.T.);
#135=CONICAL_SURFACE('',#201,4.2,0.785398163397453);
#136=SURFACE_STYLE_USAGE(.BOTH.,#202);
#137=FACE_OUTER_BOUND('',#203,.T.);
#138=CYLINDRICAL_SURFACE('',#204,4.2);
#139=SURFACE_STYLE_USAGE(.BOTH.,#205);
#140=FACE_OUTER_BOUND('',#206,.T.);
#141=CONICAL_SURFACE('',#207,4.2,0.785398163397453);
#142=SURFACE_STYLE_USAGE(.BOTH.,#208);
#143=FACE_OUTER_BOUND('',#209,.T.);
#144=CYLINDRICAL_SURFACE('',#210,4.0);
#145=SURFACE_STYLE_USAGE(.BOTH.,#211);
#146=FACE_OUTER_BOUND('',#212,.T.);
#147=CYLINDRICAL_SURFACE('',#213,4.0);
#148=SURFACE_STYLE_USAGE(.BOTH.,#214);
#149=FACE_OUTER_BOUND('',#215,.T.);
#150=CYLINDRICAL_SURFACE('',#216,4.0);
#151=SURFACE_STYLE_USAGE(.BOTH.,#217);
#152=FACE_OUTER_BOUND('',#218,.T.);
#153=CYLINDRICAL_SURFACE('',#219,4.0);
#154=SURFACE_STYLE_USAGE(.BOTH.,#220);
#155=CLOSED_SHELL('',(#43,#45,#47,#49,#51,#53,#55,#57,#59,#61,#63,#65,#67,#69,#71,#73,#75,#77));
#156=PRODUCT_CONTEXT('',#29,'mechanical');
#157=PRODUCT_DEFINITION_FORMATION_WITH_SPECIFIED_SOURCE(' ','NONE',#80,.NOT_KNOWN.);
#158=CARTESIAN_POINT('',(0.0,0.0,0.0));
#159=DIRECTION('',(0.0,0.0,1.0));
#160=DIRECTION('',(1.0,0.0,0.0));
#161= (NAMED_UNIT(#88)LENGTH_UNIT()SI_UNIT(.MILLI.,.METRE.));
#162=SURFACE_SIDE_STYLE('',(#222));
#163=EDGE_LOOP('',(#223,#224,#225,#226));
#164=AXIS2_PLACEMENT_3D('',#227,#228,#229);
#165=SURFACE_SIDE_STYLE('',(#230));
#166=EDGE_LOOP('',(#231,#232,#233,#234));
#167=AXIS2_PLACEMENT_3D('',#235,#236,#237);
#168=SURFACE_SIDE_STYLE('',(#238));
#169=EDGE_LOOP('',(#239,#240,#241,#242));
#170=AXIS2_PLACEMENT_3D('',#243,#244,#245);
#171=SURFACE_SIDE_STYLE('',(#246));
#172=EDGE_LOOP('',(#247,#248,#249,#250));
#173=AXIS2_PLACEMENT_3D('',#251,#252,#253);
#174=SURFACE_SIDE_STYLE('',(#254));
#175=EDGE_LOOP('',(#255,#256,#257,#258));
#176=AXIS2_PLACEMENT_3D('',#259,#260,#261);
#177=SURFACE_SIDE_STYLE('',(#262));
#178=EDGE_LOOP('',(#263,#264,#265,#266));
#179=AXIS2_PLACEMENT_3D('',#267,#268,#269);
#180=SURFACE_SIDE_STYLE('',(#270));
#181=EDGE_LOOP('',(#271,#272,#273,#274));
#182=AXIS2_PLACEMENT_3D('',#275,#276,#277);
#183=SURFACE_SIDE_STYLE('',(#278));
#184=EDGE_LOOP('',(#279,#280,#281,#282));
#185=AXIS2_PLACEMENT_3D('',#283,#284,#285);
#186=SURFACE_SIDE_STYLE('',(#286));
#187=EDGE_LOOP('',(#287,#288,#289,#290,#291,#292,#293,#294));
#188=EDGE_LOOP('',(#295,#296));
#189=EDGE_LOOP('',(#297,#298));
#190=AXIS2_PLACEMENT_3D('',#299,#300,#301);
#191=SURFACE_SIDE_STYLE('',(#302));
#192=EDGE_LOOP('',(#303,#304,#305,#306,#307,#308,#309,#310));
#193=EDGE_LOOP('',(#311,#312));
#194=EDGE_LOOP('',(#313,#314));
#195=AXIS2_PLACEMENT_3D('',#315,#316,#317);
#196=SURFACE_SIDE_STYLE('',(#318));
#197=EDGE_LOOP('',(#319,#320,#321,#322));
#198=AXIS2_PLACEMENT_3D('',#323,#324,#325);
#199=SURFACE_SIDE_STYLE('',(#326));
#200=EDGE_LOOP('',(#327,#328,#329,#330));
#201=AXIS2_PLACEMENT_3D('',#331,#332,#333);
#202=SURFACE_SIDE_STYLE('',(#334));
#203=EDGE_LOOP('',(#335,#336,#337,#338));
#204=AXIS2_PLACEMENT_3D('',#339,#340,#341);
#205=SURFACE_SIDE_STYLE('',(#342));
#206=EDGE_LOOP('',(#343,#344,#345,#346));
#207=AXIS2_PLACEMENT_3D('',#347,#348,#349);
#208=SURFACE_SIDE_STYLE('',(#350));
#209=EDGE_LOOP('',(#351,#352,#353,#354));
#210=AXIS2_PLACEMENT_3D('',#355,#356,#357);
#211=SURFACE_SIDE_STYLE('',(#358));
#212=EDGE_LOOP('',(#359,#360,#361,#362));
#213=AXIS2_PLACEMENT_3D('',#363,#364,#365);
#214=SURFACE_SIDE_STYLE('',(#366));
#215=EDGE_LOOP('',(#367,#368,#369,#370));
#216=AXIS2_PLACEMENT_3D('',#371,#372,#373);
#217=SURFACE_SIDE_STYLE('',(#374));
#218=EDGE_LOOP('',(#375,#376,#377,#378));
#219=AXIS2_PLACEMENT_3D('',#379,#380,#381);
#220=SURFACE_SIDE_STYLE('',(#382));
#222=SURFACE_STYLE_FILL_AREA(#383);
#223=ORIENTED_EDGE('',*,*,#384,.F.);
#224=ORIENTED_EDGE('',*,*,#385,.T.);
#225=ORIENTED_EDGE('',*,*,#386,.T.);
#226=ORIENTED_EDGE('',*,*,#387,.F.);
#227=CARTESIAN_POINT('',(20.0,0.0,0.300000000000047));
#228=DIRECTION('',(0.0,-0.0,1.0));
#229=DIRECTION('',(-1.0,0.0,0.0));
#230=SURFACE_STYLE_FILL_AREA(#388);
#231=ORIENTED_EDGE('',*,*,#384,.T.);
#232=ORIENTED_EDGE('',*,*,#389,.T.);
#233=ORIENTED_EDGE('',*,*,#390,.F.);
#234=ORIENTED_EDGE('',*,*,#391,.F.);
#235=CARTESIAN_POINT('',(20.0,0.0,-4.27894290859019));
#236=DIRECTION('',(-0.0,0.0,1.0));
#237=DIRECTION('',(1.0,0.0,0.0));
#238=SURFACE_STYLE_FILL_AREA(#392);
#239=ORIENTED_EDGE('',*,*,#393,.T.);
#240=ORIENTED_EDGE('',*,*,#394,.T.);
#241=ORIENTED_EDGE('',*,*,#395,.F.);
#242=ORIENTED_EDGE('',*,*,#396,.F.);
#243=CARTESIAN_POINT('',(-20.0,0.0,0.300000000000047));
#244=DIRECTION('',(-0.0,-0.0,1.0));
#245=DIRECTION('',(1.0,0.0,0.0));
#246=SURFACE_STYLE_FILL_AREA(#397);
#247=ORIENTED_EDGE('',*,*,#393,.F.);
#248=ORIENTED_EDGE('',*,*,#398,.T.);
#249=ORIENTED_EDGE('',*,*,#399,.T.);
#250=ORIENTED_EDGE('',*,*,#400,.F.);
#251=CARTESIAN_POINT('',(-20.0,0.0,-4.27894290859019));
#252=DIRECTION('',(0.0,0.0,1.0));
#253=DIRECTION('',(-1.0,0.0,0.0));
#254=SURFACE_STYLE_FILL_AREA(#401);
#255=ORIENTED_EDGE('',*,*,#402,.F.);
#256=ORIENTED_EDGE('',*,*,#403,.T.);
#257=ORIENTED_EDGE('',*,*,#404,.T.);
#258=ORIENTED_EDGE('',*,*,#405,.T.);
#259=CARTESIAN_POINT('',(-40.0,-20.0,5.0));
#260=DIRECTION('',(1.0,0.0,0.0));
#261=DIRECTION('',(0.0,1.0,-0.0));
#262=SURFACE_STYLE_FILL_AREA(#406);
#263=ORIENTED_EDGE('',*,*,#407,.T.);
#264=ORIENTED_EDGE('',*,*,#408,.T.);
#265=ORIENTED_EDGE('',*,*,#409,.F.);
#266=ORIENTED_EDGE('',*,*,#410,.T.);
#267=CARTESIAN_POINT('',(-40.0,-20.0,5.0));
#268=DIRECTION('',(0.0,1.0,0.0));
#269=DIRECTION('',(1.0,0.0,-0.0));
#270=SURFACE_STYLE_FILL_AREA(#411);
#271=ORIENTED_EDGE('',*,*,#412,.F.);
#272=ORIENTED_EDGE('',*,*,#413,.T.);
#273=ORIENTED_EDGE('',*,*,#414,.T.);
#274=ORIENTED_EDGE('',*,*,#415,.T.);
#275=CARTESIAN_POINT('',(40.0,-20.0,5.0));
#276=DIRECTION('',(-1.0,-1.73472347597681E-016,0.0));
#277=DIRECTION('',(-1.73472347597681E-016,1.0,0.0));
#278=SURFACE_STYLE_FILL_AREA(#416);
#279=ORIENTED_EDGE('',*,*,#417,.F.);
#280=ORIENTED_EDGE('',*,*,#418,.T.);
#281=ORIENTED_EDGE('',*,*,#419,.T.);
#282=ORIENTED_EDGE('',*,*,#420,.T.);
#283=CARTESIAN_POINT('',(-40.0,20.0,5.0));
#284=DIRECTION('',(0.0,-1.0,0.0));
#285=DIRECTION('',(0.0,0.0,-1.0));
#286=SURFACE_STYLE_FILL_AREA(#421);
#287=ORIENTED_EDGE('',*,*,#409,.T.);
#288=ORIENTED_EDGE('',*,*,#422,.T.);
#289=ORIENTED_EDGE('',*,*,#412,.T.);
#290=ORIENTED_EDGE('',*,*,#423,.T.);
#291=ORIENTED_EDGE('',*,*,#417,.T.);
#292=ORIENTED_EDGE('',*,*,#424,.T.);
#293=ORIENTED_EDGE('',*,*,#402,.T.);
#294=ORIENTED_EDGE('',*,*,#425,.T.);
#295=ORIENTED_EDGE('',*,*,#426,.F.);
#296=ORIENTED_EDGE('',*,*,#386,.F.);
#297=ORIENTED_EDGE('',*,*,#395,.T.);
#298=ORIENTED_EDGE('',*,*,#427,.T.);
#299=CARTESIAN_POINT('',(-40.0,20.0,5.0));
#300=DIRECTION('',(0.0,0.0,-1.0));
#301=DIRECTION('',(0.0,-1.0,0.0));
#302=SURFACE_STYLE_FILL_AREA(#428);
#303=ORIENTED_EDGE('',*,*,#414,.F.);
#304=ORIENTED_EDGE('',*,*,#429,.T.);
#305=ORIENTED_EDGE('',*,*,#407,.F.);
#306=ORIENTED_EDGE('',*,*,#430,.T.);
#307=ORIENTED_EDGE('',*,*,#404,.F.);
#308=ORIENTED_EDGE('',*,*,#431,.T.);
#309=ORIENTED_EDGE('',*,*,#419,.F.);
#310=ORIENTED_EDGE('',*,*,#432,.T.);
#311=ORIENTED_EDGE('',*,*,#390,.T.);
#312=ORIENTED_EDGE('',*,*,#433,.T.);
#313=ORIENTED_EDGE('',*,*,#434,.F.);
#314=ORIENTED_EDGE('',*,*,#399,.F.);
#315=CARTESIAN_POINT('',(-40.0,20.0,0.0));
#316=DIRECTION('',(0.0,0.0,-1.0));
#317=DIRECTION('',(0.0,-1.0,0.0));
#318=SURFACE_STYLE_FILL_AREA(#435);
#319=ORIENTED_EDGE('',*,*,#398,.F.);
#320=ORIENTED_EDGE('',*,*,#436,.F.);
#321=ORIENTED_EDGE('',*,*,#400,.T.);
#322=ORIENTED_EDGE('',*,*,#434,.T.);
#323=CARTESIAN_POINT('',(-20.0,0.0,-4.27894290859019));
#324=DIRECTION('',(0.0,0.0,1.0));
#325=DIRECTION('',(-1.0,0.0,0.0));
#326=SURFACE_STYLE_FILL_AREA(#437);
#327=ORIENTED_EDGE('',*,*,#394,.F.);
#328=ORIENTED_EDGE('',*,*,#436,.T.);
#329=ORIENTED_EDGE('',*,*,#396,.T.);
#330=ORIENTED_EDGE('',*,*,#427,.F.);
#331=CARTESIAN_POINT('',(-20.0,0.0,0.300000000000047));
#332=DIRECTION('',(-0.0,-0.0,1.0));
#333=DIRECTION('',(1.0,0.0,0.0));
#334=SURFACE_STYLE_FILL_AREA(#438);
#335=ORIENTED_EDGE('',*,*,#389,.F.);
#336=ORIENTED_EDGE('',*,*,#439,.T.);
#337=ORIENTED_EDGE('',*,*,#391,.T.);
#338=ORIENTED_EDGE('',*,*,#433,.F.);
#339=CARTESIAN_POINT('',(20.0,0.0,-4.27894290859019));
#340=DIRECTION('',(-0.0,0.0,1.0));
#341=DIRECTION('',(1.0,0.0,0.0));
#342=SURFACE_STYLE_FILL_AREA(#440);
#343=ORIENTED_EDGE('',*,*,#385,.F.);
#344=ORIENTED_EDGE('',*,*,#439,.F.);
#345=ORIENTED_EDGE('',*,*,#387,.T.);
#346=ORIENTED_EDGE('',*,*,#426,.T.);
#347=CARTESIAN_POINT('',(20.0,0.0,0.300000000000047));
#348=DIRECTION('',(0.0,-0.0,1.0));
#349=DIRECTION('',(-1.0,0.0,0.0));
#350=SURFACE_STYLE_FILL_AREA(#441);
#351=ORIENTED_EDGE('',*,*,#422,.F.);
#352=ORIENTED_EDGE('',*,*,#408,.F.);
#353=ORIENTED_EDGE('',*,*,#429,.F.);
#354=ORIENTED_EDGE('',*,*,#413,.F.);
#355=CARTESIAN_POINT('',(36.0,-16.0,5.0));
#356=DIRECTION('',(0.0,0.0,1.0));
#357=DIRECTION('',(-1.0,0.0,0.0));
#358=SURFACE_STYLE_FILL_AREA(#442);
#359=ORIENTED_EDGE('',*,*,#423,.F.);
#360=ORIENTED_EDGE('',*,*,#415,.F.);
#361=ORIENTED_EDGE('',*,*,#432,.F.);
#362=ORIENTED_EDGE('',*,*,#418,.F.);
#363=CARTESIAN_POINT('',(36.0,16.0,5.0));
#364=DIRECTION('',(0.0,0.0,1.0));
#365=DIRECTION('',(-1.0,0.0,0.0));
#366=SURFACE_STYLE_FILL_AREA(#443);
#367=ORIENTED_EDGE('',*,*,#424,.F.);
#368=ORIENTED_EDGE('',*,*,#420,.F.);
#369=ORIENTED_EDGE('',*,*,#431,.F.);
#370=ORIENTED_EDGE('',*,*,#403,.F.);
#371=CARTESIAN_POINT('',(-36.0,16.0,5.0));
#372=DIRECTION('',(0.0,0.0,1.0));
#373=DIRECTION('',(-1.0,0.0,0.0));
#374=SURFACE_STYLE_FILL_AREA(#444);
#375=ORIENTED_EDGE('',*,*,#425,.F.);
#376=ORIENTED_EDGE('',*,*,#405,.F.);
#377=ORIENTED_EDGE('',*,*,#430,.F.);
#378=ORIENTED_EDGE('',*,*,#410,.F.);
#379=CARTESIAN_POINT('',(-36.0,-16.0,5.0));
#380=DIRECTION('',(0.0,0.0,1.0));
#381=DIRECTION('',(-1.0,0.0,0.0));
#382=SURFACE_STYLE_FILL_AREA(#445);
#383=FILL_AREA_STYLE('',(#446));
#384=EDGE_CURVE('NONE',#447,#448,#449,.T.);
#385=EDGE_CURVE('NONE',#447,#450,#451,.T.);
#386=EDGE_CURVE('NONE',#450,#452,#453,.T.);
#387=EDGE_CURVE('NONE',#448,#452,#454,.T.);
#388=FILL_AREA_STYLE('',(#455));
#389=EDGE_CURVE('NONE',#448,#456,#457,.T.);
#390=EDGE_CURVE('NONE',#458,#456,#459,.T.);
#391=EDGE_CURVE('NONE',#447,#458,#460,.T.);
#392=FILL_AREA_STYLE('',(#461));
#393=EDGE_CURVE('NONE',#462,#463,#464,.T.);
#394=EDGE_CURVE('NONE',#463,#465,#466,.T.);
#395=EDGE_CURVE('NONE',#467,#465,#468,.T.);
#396=EDGE_CURVE('NONE',#462,#467,#469,.T.);
#397=FILL_AREA_STYLE('',(#470));
#398=EDGE_CURVE('NONE',#462,#471,#472,.T.);
#399=EDGE_CURVE('NONE',#471,#473,#474,.T.);
#400=EDGE_CURVE('NONE',#463,#473,#475,.T.);
#401=FILL_AREA_STYLE('',(#476));
#402=EDGE_CURVE('NONE',#477,#478,#479,.T.);
#403=EDGE_CURVE('NONE',#477,#480,#481,.T.);
#404=EDGE_CURVE('NONE',#480,#482,#483,.T.);
#405=EDGE_CURVE('NONE',#482,#478,#484,.T.);
#406=FILL_AREA_STYLE('',(#485));
#407=EDGE_CURVE('NONE',#486,#487,#488,.T.);
#408=EDGE_CURVE('NONE',#487,#489,#490,.T.);
#409=EDGE_CURVE('NONE',#491,#489,#492,.T.);
#410=EDGE_CURVE('NONE',#491,#486,#493,.T.);
#411=FILL_AREA_STYLE('',(#494));
#412=EDGE_CURVE('NONE',#495,#496,#497,.T.);
#413=EDGE_CURVE('NONE',#495,#498,#499,.T.);
#414=EDGE_CURVE('NONE',#498,#500,#501,.T.);
#415=EDGE_CURVE('NONE',#500,#496,#502,.T.);
#416=FILL_AREA_STYLE('',(#503));
#417=EDGE_CURVE('NONE',#504,#505,#506,.T.);
#418=EDGE_CURVE('NONE',#504,#507,#508,.T.);
#419=EDGE_CURVE('NONE',#507,#509,#510,.T.);
#420=EDGE_CURVE('NONE',#509,#505,#511,.T.);
#421=FILL_AREA_STYLE('',(#512));
#422=EDGE_CURVE('NONE',#489,#495,#513,.T.);
#423=EDGE_CURVE('NONE',#496,#504,#514,.T.);
#424=EDGE_CURVE('NONE',#505,#477,#515,.T.);
#425=EDGE_CURVE('NONE',#478,#491,#516,.T.);
#426=EDGE_CURVE('NONE',#452,#450,#517,.T.);
#427=EDGE_CURVE('NONE',#465,#467,#518,.T.);
#428=FILL_AREA_STYLE('',(#519));
#429=EDGE_CURVE('NONE',#498,#487,#520,.T.);
#430=EDGE_CURVE('NONE',#486,#482,#521,.T.);
#431=EDGE_CURVE('NONE',#480,#509,#522,.T.);
#432=EDGE_CURVE('NONE',#507,#500,#523,.T.);
#433=EDGE_CURVE('NONE',#456,#458,#524,.T.);
#434=EDGE_CURVE('NONE',#473,#471,#525,.T.);
#435=FILL_AREA_STYLE('',(#526));
#436=EDGE_CURVE('NONE',#463,#462,#527,.T.);
#437=FILL_AREA_STYLE('',(#528));
#438=FILL_AREA_STYLE('',(#529));
#439=EDGE_CURVE('NONE',#448,#447,#530,.T.);
#440=FILL_AREA_STYLE('',(#531));
#441=FILL_AREA_STYLE('',(#532));
#442=FILL_AREA_STYLE('',(#533));
#443=FILL_AREA_STYLE('',(#534));
#444=FILL_AREA_STYLE('',(#535));
#445=FILL_AREA_STYLE('',(#536));
#446=FILL_AREA_STYLE_COLOUR('',#537);
#447=VERTEX_POINT('NONE',#538);
#448=VERTEX_POINT('NONE',#539);
#449=CIRCLE('',#540,4.2);
#450=VERTEX_POINT('NONE',#541);
#451=LINE('',#542,#543);
#452=VERTEX_POINT('NONE',#544);
#453=CIRCLE('',#545,8.9);
#454=LINE('',#546,#547);
#455=FILL_AREA_STYLE_COLOUR('',#548);
#456=VERTEX_POINT('NONE',#549);
#457=LINE('',#550,#551);
#458=VERTEX_POINT('NONE',#552);
#459=CIRCLE('',#553,4.2);
#460=LINE('',#554,#555);
#461=FILL_AREA_STYLE_COLOUR('',#556);
#462=VERTEX_POINT('NONE',#557);
#463=VERTEX_POINT('NONE',#558);
#464=CIRCLE('',#559,4.2);
#465=VERTEX_POINT('NONE',#560);
#466=LINE('',#561,#562);
#467=VERTEX_POINT('NONE',#563);
#468=CIRCLE('',#564,8.9);
#469=LINE('',#565,#566);
#470=FILL_AREA_STYLE_COLOUR('',#567);
#471=VERTEX_POINT('NONE',#568);
#472=LINE('',#569,#570);
#473=VERTEX_POINT('NONE',#571);
#474=CIRCLE('',#572,4.2);
#475=LINE('',#573,#574);
#476=FILL_AREA_STYLE_COLOUR('',#575);
#477=VERTEX_POINT('NONE',#576);
#478=VERTEX_POINT('NONE',#577);
#479=LINE('',#578,#579);
#480=VERTEX_POINT('NONE',#580);
#481=LINE('',#581,#582);
#482=VERTEX_POINT('NONE',#583);
#483=LINE('',#584,#585);
#484=LINE('',#586,#587);
#485=FILL_AREA_STYLE_COLOUR('',#588);
#486=VERTEX_POINT('NONE',#589);
#487=VERTEX_POINT('NONE',#590);
#488=LINE('',#591,#592);
#489=VERTEX_POINT('NONE',#593);
#490=LINE('',#594,#595);
#491=VERTEX_POINT('NONE',#596);
#492=LINE('',#597,#598);
#493=LINE('',#599,#600);
#494=FILL_AREA_STYLE_COLOUR('',#601);
#495=VERTEX_POINT('NONE',#602);
#496=VERTEX_POINT('NONE',#603);
#497=LINE('',#604,#605);
#498=VERTEX_POINT('NONE',#606);
#499=LINE('',#607,#608);
#500=VERTEX_POINT('NONE',#609);
#501=LINE('',#610,#611);
#502=LINE('',#612,#613);
#503=FILL_AREA_STYLE_COLOUR('',#614);
#504=VERTEX_POINT('NONE',#615);
#505=VERTEX_POINT('NONE',#616);
#506=LINE('',#617,#618);
#507=VERTEX_POINT('NONE',#619);
#508=LINE('',#620,#621);
#509=VERTEX_POINT('NONE',#622);
#510=LINE('',#623,#624);
#511=LINE('',#625,#626);
#512=FILL_AREA_STYLE_COLOUR('',#627);
#513=CIRCLE('',#628,4.0);
#514=CIRCLE('',#629,4.0);
#515=CIRCLE('',#630,4.0);
#516=CIRCLE('',#631,4.0);
#517=CIRCLE('',#632,8.9);
#518=CIRCLE('',#633,8.9);
#519=FILL_AREA_STYLE_COLOUR('',#634);
#520=CIRCLE('',#635,4.0);
#521=CIRCLE('',#636,4.0);
#522=CIRCLE('',#637,4.0);
#523=CIRCLE('',#638,4.0);
#524=CIRCLE('',#639,4.2);
#525=CIRCLE('',#640,4.2);
#526=FILL_AREA_STYLE_COLOUR('',#641);
#527=CIRCLE('',#642,4.2);
#528=FILL_AREA_STYLE_COLOUR('',#643);
#529=FILL_AREA_STYLE_COLOUR('',#644);
#530=CIRCLE('',#645,4.2);
#531=FILL_AREA_STYLE_COLOUR('',#646);
#532=FILL_AREA_STYLE_COLOUR('',#647);
#533=FILL_AREA_STYLE_COLOUR('',#648);
#534=FILL_AREA_STYLE_COLOUR('',#649);
#535=FILL_AREA_STYLE_COLOUR('',#650);
#536=FILL_AREA_STYLE_COLOUR('',#651);
#537=COLOUR_RGB('',0.752941191196442,0.752941191196442,0.752941191196442);
#538=CARTESIAN_POINT('',(24.2,0.0,0.300000000000047));
#539=CARTESIAN_POINT('',(15.8,-5.14351655641888E-016,0.300000000000047));
#540=AXIS2_PLACEMENT_3D('',#652,#653,#654);
#541=CARTESIAN_POINT('',(28.9,-1.08993565124114E-015,5.0));
#542=CARTESIAN_POINT('',(24.2,-5.14351655641888E-016,0.300000000000047));
#543=VECTOR('',#655,1000.0);
#544=CARTESIAN_POINT('',(11.1,0.0,5.0));
#545=AXIS2_PLACEMENT_3D('',#656,#657,#658);
#546=CARTESIAN_POINT('',(15.8,0.0,0.300000000000047));
#547=VECTOR('',#659,1000.0);
#548=COLOUR_RGB('',0.752941191196442,0.752941191196442,0.752941191196442);
#549=CARTESIAN_POINT('',(15.8,-5.14351655641888E-016,0.0));
#550=CARTESIAN_POINT('',(15.8,-5.14351655641888E-016,-4.27894290859019));
#551=VECTOR('',#660,1000.0);
#552=CARTESIAN_POINT('',(24.2,0.0,0.0));
#553=AXIS2_PLACEMENT_3D('',#661,#662,#663);
#554=CARTESIAN_POINT('',(24.2,0.0,-4.27894290859019));
#555=VECTOR('',#664,1000.0);
#556=COLOUR_RGB('',0.752941191196442,0.752941191196442,0.752941191196442);
#557=CARTESIAN_POINT('',(-15.8,5.14351655641888E-016,0.300000000000047));
#558=CARTESIAN_POINT('',(-24.2,0.0,0.300000000000047));
#559=AXIS2_PLACEMENT_3D('',#665,#666,#667);
#560=CARTESIAN_POINT('',(-28.9,1.08993565124114E-015,5.0));
#561=CARTESIAN_POINT('',(-24.2,5.14351655641888E-016,0.300000000000047));
#562=VECTOR('',#668,1000.0);
#563=CARTESIAN_POINT('',(-11.1,0.0,5.0));
#564=AXIS2_PLACEMENT_3D('',#669,#670,#671);
#565=CARTESIAN_POINT('',(-15.8,0.0,0.300000000000047));
#566=VECTOR('',#672,1000.0);
#567=COLOUR_RGB('',0.752941191196442,0.752941191196442,0.752941191196442);
#568=CARTESIAN_POINT('',(-15.8,5.14351655641888E-016,0.0));
#569=CARTESIAN_POINT('',(-15.8,5.14351655641888E-016,-4.27894290859019));
#570=VECTOR('',#673,1000.0);
#571=CARTESIAN_POINT('',(-24.2,0.0,0.0));
#572=AXIS2_PLACEMENT_3D('',#674,#675,#676);
#573=CARTESIAN_POINT('',(-24.2,0.0,-4.27894290859019));
#574=VECTOR('',#677,1000.0);
#575=COLOUR_RGB('',0.752941191196442,0.752941191196442,0.752941191196442);
#576=CARTESIAN_POINT('',(-40.0,16.0,5.0));
#577=CARTESIAN_POINT('',(-40.0,-16.0,5.0));
#578=CARTESIAN_POINT('',(-40.0,-20.0,5.0));
#579=VECTOR('',#678,1000.0);
#580=CARTESIAN_POINT('',(-40.0,16.0,0.0));
#581=CARTESIAN_POINT('',(-40.0,16.0,5.0));
#582=VECTOR('',#679,1000.0);
#583=CARTESIAN_POINT('',(-40.0,-16.0,0.0));
#584=CARTESIAN_POINT('',(-40.0,-20.0,0.0));
#585=VECTOR('',#680,1000.0);
#586=CARTESIAN_POINT('',(-40.0,-16.0,5.0));
#587=VECTOR('',#681,1000.0);
#588=COLOUR_RGB('',0.752941191196442,0.752941191196442,0.752941191196442);
#589=CARTESIAN_POINT('',(-36.0,-20.0,0.0));
#590=CARTESIAN_POINT('',(36.0,-20.0,0.0));
#591=CARTESIAN_POINT('',(-40.0,-20.0,0.0));
#592=VECTOR('',#682,1000.0);
#593=CARTESIAN_POINT('',(36.0,-20.0,5.0));
#594=CARTESIAN_POINT('',(36.0,-20.0,5.0));
#595=VECTOR('',#683,1000.0);
#596=CARTESIAN_POINT('',(-36.0,-20.0,5.0));
#597=CARTESIAN_POINT('',(-40.0,-20.0,5.0));
#598=VECTOR('',#684,1000.0);
#599=CARTESIAN_POINT('',(-36.0,-20.0,5.0));
#600=VECTOR('',#685,1000.0);
#601=COLOUR_RGB('',0.752941191196442,0.752941191196442,0.752941191196442);
#602=CARTESIAN_POINT('',(40.0,-16.0,5.0));
#603=CARTESIAN_POINT('',(40.0,16.0,5.0));
#604=CARTESIAN_POINT('',(40.0,-20.0,5.0));
#605=VECTOR('',#686,1000.0);
#606=CARTESIAN_POINT('',(40.0,-16.0,0.0));
#607=CARTESIAN_POINT('',(40.0,-16.0,5.0));
#608=VECTOR('',#687,1000.0);
#609=CARTESIAN_POINT('',(40.0,16.0,0.0));
#610=CARTESIAN_POINT('',(40.0,-20.0,0.0));
#611=VECTOR('',#688,1000.0);
#612=CARTESIAN_POINT('',(40.0,16.0,5.0));
#613=VECTOR('',#689,1000.0);
#614=COLOUR_RGB('',0.752941191196442,0.752941191196442,0.752941191196442);
#615=CARTESIAN_POINT('',(36.0,20.0,5.0));
#616=CARTESIAN_POINT('',(-36.0,20.0,5.0));
#617=CARTESIAN_POINT('',(-40.0,20.0,5.0));
#618=VECTOR('',#690,1000.0);
#619=CARTESIAN_POINT('',(36.0,20.0,0.0));
#620=CARTESIAN_POINT('',(36.0,20.0,5.0));
#621=VECTOR('',#691,1000.0);
#622=CARTESIAN_POINT('',(-36.0,20.0,0.0));
#623=CARTESIAN_POINT('',(-40.0,20.0,0.0));
#624=VECTOR('',#692,1000.0);
#625=CARTESIAN_POINT('',(-36.0,20.0,5.0));
#626=VECTOR('',#693,1000.0);
#627=COLOUR_RGB('',0.752941191196442,0.752941191196442,0.752941191196442);
#628=AXIS2_PLACEMENT_3D('',#694,#695,#696);
#629=AXIS2_PLACEMENT_3D('',#697,#698,#699);
#630=AXIS2_PLACEMENT_3D('',#700,#701,#702);
#631=AXIS2_PLACEMENT_3D('',#703,#704,#705);
#632=AXIS2_PLACEMENT_3D('',#706,#707,#708);
#633=AXIS2_PLACEMENT_3D('',#709,#710,#711);
#634=COLOUR_RGB('',0.752941191196442,0.752941191196442,0.752941191196442);
#635=AXIS2_PLACEMENT_3D('',#712,#713,#714);
#636=AXIS2_PLACEMENT_3D('',#715,#716,#717);
#637=AXIS2_PLACEMENT_3D('',#718,#719,#720);
#638=AXIS2_PLACEMENT_3D('',#721,#722,#723);
#639=AXIS2_PLACEMENT_3D('',#724,#725,#726);
#640=AXIS2_PLACEMENT_3D('',#727,#728,#729);
#641=COLOUR_RGB('',0.752941191196442,0.752941191196442,0.752941191196442);
#642=AXIS2_PLACEMENT_3D('',#730,#731,#732);
#643=COLOUR_RGB('',0.752941191196442,0.752941191196442,0.752941191196442);
#644=COLOUR_RGB('',0.752941191196442,0.752941191196442,0.752941191196442);
#645=AXIS2_PLACEMENT_3D('',#733,#734,#735);
#646=COLOUR_RGB('',0.752941191196442,0.752941191196442,0.752941191196442);
#647=COLOUR_RGB('',0.752941191196442,0.752941191196442,0.752941191196442);
#648=COLOUR_RGB('',0.752941191196442,0.752941191196442,0.752941191196442);
#649=COLOUR_RGB('',0.752941191196442,0.752941191196442,0.752941191196442);
#650=COLOUR_RGB('',0.752941191196442,0.752941191196442,0.752941191196442);
#651=COLOUR_RGB('',0.752941191196442,0.752941191196442,0.752941191196442);
#652=CARTESIAN_POINT('',(20.0,0.0,0.300000000000047));
#653=DIRECTION('',(-0.0,0.0,1.0));
#654=DIRECTION('',(1.0,0.0,0.0));
#655=DIRECTION('',(0.707106781186551,-8.65956056235498E-017,0.707106781186544));
#656=CARTESIAN_POINT('',(20.0,0.0,5.0));
#657=DIRECTION('',(-0.0,0.0,1.0));
#658=DIRECTION('',(1.0,0.0,0.0));
#659=DIRECTION('',(-0.707106781186551,0.0,0.707106781186544));
#660=DIRECTION('',(0.0,-0.0,-1.0));
#661=CARTESIAN_POINT('',(20.0,0.0,0.0));
#662=DIRECTION('',(-0.0,0.0,1.0));
#663=DIRECTION('',(1.0,0.0,0.0));
#664=DIRECTION('',(0.0,-0.0,-1.0));
#665=CARTESIAN_POINT('',(-20.0,0.0,0.300000000000047));
#666=DIRECTION('',(0.0,0.0,-1.0));
#667=DIRECTION('',(-1.0,0.0,0.0));
#668=DIRECTION('',(-0.707106781186551,8.65956056235498E-017,0.707106781186544));
#669=CARTESIAN_POINT('',(-20.0,0.0,5.0));
#670=DIRECTION('',(0.0,0.0,-1.0));
#671=DIRECTION('',(-1.0,0.0,0.0));
#672=DIRECTION('',(0.707106781186551,0.0,0.707106781186544));
#673=DIRECTION('',(-0.0,-0.0,-1.0));
#674=CARTESIAN_POINT('',(-20.0,0.0,0.0));
#675=DIRECTION('',(0.0,0.0,-1.0));
#676=DIRECTION('',(-1.0,0.0,0.0));
#677=DIRECTION('',(-0.0,-0.0,-1.0));
#678=DIRECTION('',(-0.0,-1.0,-0.0));
#679=DIRECTION('',(0.0,0.0,-1.0));
#680=DIRECTION('',(-0.0,-1.0,-0.0));
#681=DIRECTION('',(-0.0,-0.0,1.0));
#682=DIRECTION('',(1.0,0.0,0.0));
#683=DIRECTION('',(-0.0,-0.0,1.0));
#684=DIRECTION('',(1.0,0.0,0.0));
#685=DIRECTION('',(0.0,0.0,-1.0));
#686=DIRECTION('',(-1.73472347597681E-016,1.0,0.0));
#687=DIRECTION('',(0.0,0.0,-1.0));
#688=DIRECTION('',(-1.73472347597681E-016,1.0,0.0));
#689=DIRECTION('',(-0.0,-0.0,1.0));
#690=DIRECTION('',(-1.0,-0.0,-0.0));
#691=DIRECTION('',(0.0,0.0,-1.0));
#692=DIRECTION('',(-1.0,-0.0,-0.0));
#693=DIRECTION('',(-0.0,-0.0,1.0));
#694=CARTESIAN_POINT('',(36.0,-16.0,5.0));
#695=DIRECTION('',(0.0,0.0,1.0));
#696=DIRECTION('',(-1.0,0.0,0.0));
#697=CARTESIAN_POINT('',(36.0,16.0,5.0));
#698=DIRECTION('',(0.0,0.0,1.0));
#699=DIRECTION('',(-1.0,0.0,0.0));
#700=CARTESIAN_POINT('',(-36.0,16.0,5.0));
#701=DIRECTION('',(0.0,0.0,1.0));
#702=DIRECTION('',(-1.0,0.0,0.0));
#703=CARTESIAN_POINT('',(-36.0,-16.0,5.0));
#704=DIRECTION('',(0.0,0.0,1.0));
#705=DIRECTION('',(-1.0,0.0,0.0));
#706=CARTESIAN_POINT('',(20.0,0.0,5.0));
#707=DIRECTION('',(-0.0,0.0,1.0));
#708=DIRECTION('',(1.0,0.0,0.0));
#709=CARTESIAN_POINT('',(-20.0,0.0,5.0));
#710=DIRECTION('',(0.0,0.0,-1.0));
#711=DIRECTION('',(-1.0,0.0,0.0));
#712=CARTESIAN_POINT('',(36.0,-16.0,0.0));
#713=DIRECTION('',(0.0,0.0,-1.0));
#714=DIRECTION('',(-1.0,0.0,0.0));
#715=CARTESIAN_POINT('',(-36.0,-16.0,0.0));
#716=DIRECTION('',(0.0,0.0,-1.0));
#717=DIRECTION('',(-1.0,0.0,0.0));
#718=CARTESIAN_POINT('',(-36.0,16.0,0.0));
#719=DIRECTION('',(0.0,0.0,-1.0));
#720=DIRECTION('',(-1.0,0.0,0.0));
#721=CARTESIAN_POINT('',(36.0,16.0,0.0));
#722=DIRECTION('',(0.0,0.0,-1.0));
#723=DIRECTION('',(-1.0,0.0,0.0));
#724=CARTESIAN_POINT('',(20.0,0.0,0.0));
#725=DIRECTION('',(-0.0,0.0,1.0));
#726=DIRECTION('',(1.0,0.0,0.0));
#727=CARTESIAN_POINT('',(-20.0,0.0,0.0));
#728=DIRECTION('',(0.0,0.0,-1.0));
#729=DIRECTION('',(-1.0,0.0,0.0));
#730=CARTESIAN_POINT('',(-20.0,0.0,0.300000000000047));
#731=DIRECTION('',(0.0,0.0,-1.0));
#732=DIRECTION('',(-1.0,0.0,0.0));
#733=CARTESIAN_POINT('',(20.0,0.0,0.300000000000047));
#734=DIRECTION('',(-0.0,0.0,1.0));
#735=DIRECTION('',(1.0,0.0,0.0));
#736=PRESENTATION_LAYER_ASSIGNMENT('NONE','',(#79));
ENDSEC;
END-ISO-10303-21;
