ISO-10303-21;
HEADER;
FILE_DESCRIPTION(('STEP AP214'),'1');
FILE_NAME('fath_092013s500.stp','2017-04-27T13:54:28',('TraceParts'),('TraceParts S.A.'),'Spatial InterOp 3D',' ',' ');
FILE_SCHEMA(('automotive_design'));
ENDSEC;
DATA;
#1=MECHANICAL_DESIGN_GEOMETRIC_PRESENTATION_REPRESENTATION(' ',(#10,#11,#12,#13,#14,#15,#16),#6);
#2=PRODUCT_DEFINITION_CONTEXT('',#17,'design');
#3=APPLICATION_PROTOCOL_DEFINITION('INTERNATIONAL STANDARD','automotive_design',1994,#17);
#4=PRODUCT_CATEGORY_RELATIONSHIP('NONE','NONE',#18,#19);
#5=SHAPE_DEFINITION_REPRESENTATION(#20,#21);
#6= (GEOMETRIC_REPRESENTATION_CONTEXT(3)GLOBAL_UNCERTAINTY_ASSIGNED_CONTEXT((#24))GLOBAL_UNIT_ASSIGNED_CONTEXT((#26,#27,#28))REPRESENTATION_CONTEXT('NONE','WORKSPACE'));
#10=STYLED_ITEM('',(#30),#31);
#11=STYLED_ITEM('',(#32),#33);
#12=STYLED_ITEM('',(#34),#35);
#13=STYLED_ITEM('',(#36),#37);
#14=STYLED_ITEM('',(#38),#39);
#15=STYLED_ITEM('',(#40),#41);
#16=STYLED_ITEM('',(#42),#43);
#17=APPLICATION_CONTEXT(' ');
#18=PRODUCT_CATEGORY('part','NONE');
#19=PRODUCT_RELATED_PRODUCT_CATEGORY('detail',' ',(#44));
#20=PRODUCT_DEFINITION_SHAPE('NONE','NONE',#45);
#21=ADVANCED_BREP_SHAPE_REPRESENTATION('fath_092013s500',(#43,#46),#6);
#24=UNCERTAINTY_MEASURE_WITH_UNIT(LENGTH_MEASURE(1.0E-006),#26,'','');
#26= (CONVERSION_BASED_UNIT('MILLIMETRE',#49)LENGTH_UNIT()NAMED_UNIT(#52));
#27= (NAMED_UNIT(#54)PLANE_ANGLE_UNIT()SI_UNIT($,.RADIAN.));
#28= (NAMED_UNIT(#54)SOLID_ANGLE_UNIT()SI_UNIT($,.STERADIAN.));
#30=PRESENTATION_STYLE_ASSIGNMENT((#60));
#31=ADVANCED_FACE('NONE',(#61),#62,.F.);
#32=PRESENTATION_STYLE_ASSIGNMENT((#63));
#33=ADVANCED_FACE('NONE',(#64),#65,.T.);
#34=PRESENTATION_STYLE_ASSIGNMENT((#66));
#35=ADVANCED_FACE('NONE',(#67,#68),#69,.T.);
#36=PRESENTATION_STYLE_ASSIGNMENT((#70));
#37=ADVANCED_FACE('NONE',(#71,#72),#73,.F.);
#38=PRESENTATION_STYLE_ASSIGNMENT((#74));
#39=ADVANCED_FACE('NONE',(#75),#76,.T.);
#40=PRESENTATION_STYLE_ASSIGNMENT((#77));
#41=ADVANCED_FACE('NONE',(#78),#79,.F.);
#42=PRESENTATION_STYLE_ASSIGNMENT((#80));
#43=MANIFOLD_SOLID_BREP('fath_092013s500',#81);
#44=PRODUCT('fath_092013s500','fath_092013s500','PART-fath_092013s500-DESC',(#82));
#45=PRODUCT_DEFINITION('NONE','NONE',#83,#2);
#46=AXIS2_PLACEMENT_3D('',#84,#85,#86);
#49=LENGTH_MEASURE_WITH_UNIT(LENGTH_MEASURE(1.0),#87);
#52=DIMENSIONAL_EXPONENTS(1.0,0.0,0.0,0.0,0.0,0.0,0.0);
#54=DIMENSIONAL_EXPONENTS(0.0,0.0,0.0,0.0,0.0,0.0,0.0);
#60=SURFACE_STYLE_USAGE(.BOTH.,#88);
#61=FACE_OUTER_BOUND('',#89,.T.);
#62=CYLINDRICAL_SURFACE('',#90,14.0);
#63=SURFACE_STYLE_USAGE(.BOTH.,#91);
#64=FACE_OUTER_BOUND('',#92,.T.);
#65=CYLINDRICAL_SURFACE('',#93,15.0);
#66=SURFACE_STYLE_USAGE(.BOTH.,#94);
#67=FACE_OUTER_BOUND('',#95,.T.);
#68=FACE_BOUND('',#96,.T.);
#69=PLANE('',#97);
#70=SURFACE_STYLE_USAGE(.BOTH.,#98);
#71=FACE_OUTER_BOUND('',#99,.T.);
#72=FACE_BOUND('',#100,.T.);
#73=PLANE('',#101);
#74=SURFACE_STYLE_USAGE(.BOTH.,#102);
#75=FACE_OUTER_BOUND('',#103,.T.);
#76=CYLINDRICAL_SURFACE('',#104,15.0);
#77=SURFACE_STYLE_USAGE(.BOTH.,#105);
#78=FACE_OUTER_BOUND('',#106,.T.);
#79=CYLINDRICAL_SURFACE('',#107,14.0);
#80=SURFACE_STYLE_USAGE(.BOTH.,#108);
#81=CLOSED_SHELL('',(#31,#33,#35,#37,#39,#41));
#82=PRODUCT_CONTEXT('',#17,'mechanical');
#83=PRODUCT_DEFINITION_FORMATION_WITH_SPECIFIED_SOURCE(' ','NONE',#44,.NOT_KNOWN.);
#84=CARTESIAN_POINT('',(0.0,0.0,0.0));
#85=DIRECTION('',(0.0,0.0,1.0));
#86=DIRECTION('',(1.0,0.0,0.0));
#87= (NAMED_UNIT(#52)LENGTH_UNIT()SI_UNIT(.MILLI.,.METRE.));
#88=SURFACE_SIDE_STYLE('',(#110));
#89=EDGE_LOOP('',(#111,#112,#113,#114));
#90=AXIS2_PLACEMENT_3D('',#115,#116,#117);
#91=SURFACE_SIDE_STYLE('',(#118));
#92=EDGE_LOOP('',(#119,#120,#121,#122));
#93=AXIS2_PLACEMENT_3D('',#123,#124,#125);
#94=SURFACE_SIDE_STYLE('',(#126));
#95=EDGE_LOOP('',(#127,#128));
#96=EDGE_LOOP('',(#129,#130));
#97=AXIS2_PLACEMENT_3D('',#131,#132,#133);
#98=SURFACE_SIDE_STYLE('',(#134));
#99=EDGE_LOOP('',(#135,#136));
#100=EDGE_LOOP('',(#137,#138));
#101=AXIS2_PLACEMENT_3D('',#139,#140,#141);
#102=SURFACE_SIDE_STYLE('',(#142));
#103=EDGE_LOOP('',(#143,#144,#145,#146));
#104=AXIS2_PLACEMENT_3D('',#147,#148,#149);
#105=SURFACE_SIDE_STYLE('',(#150));
#106=EDGE_LOOP('',(#151,#152,#153,#154));
#107=AXIS2_PLACEMENT_3D('',#155,#156,#157);
#108=SURFACE_SIDE_STYLE('',(#158));
#110=SURFACE_STYLE_FILL_AREA(#159);
#111=ORIENTED_EDGE('',*,*,#160,.T.);
#112=ORIENTED_EDGE('',*,*,#161,.T.);
#113=ORIENTED_EDGE('',*,*,#162,.F.);
#114=ORIENTED_EDGE('',*,*,#163,.F.);
#115=CARTESIAN_POINT('',(0.0,0.0,185.0));
#116=DIRECTION('',(0.0,0.0,1.0));
#117=DIRECTION('',(-1.0,0.0,0.0));
#118=SURFACE_STYLE_FILL_AREA(#164);
#119=ORIENTED_EDGE('',*,*,#165,.F.);
#120=ORIENTED_EDGE('',*,*,#166,.T.);
#121=ORIENTED_EDGE('',*,*,#167,.T.);
#122=ORIENTED_EDGE('',*,*,#168,.F.);
#123=CARTESIAN_POINT('',(0.0,0.0,185.0));
#124=DIRECTION('',(0.0,0.0,1.0));
#125=DIRECTION('',(-1.0,0.0,0.0));
#126=SURFACE_STYLE_FILL_AREA(#169);
#127=ORIENTED_EDGE('',*,*,#170,.T.);
#128=ORIENTED_EDGE('',*,*,#165,.T.);
#129=ORIENTED_EDGE('',*,*,#160,.F.);
#130=ORIENTED_EDGE('',*,*,#171,.F.);
#131=CARTESIAN_POINT('',(0.0,0.0,185.0));
#132=DIRECTION('',(0.0,0.0,1.0));
#133=DIRECTION('',(1.0,-0.0,0.0));
#134=SURFACE_STYLE_FILL_AREA(#172);
#135=ORIENTED_EDGE('',*,*,#173,.F.);
#136=ORIENTED_EDGE('',*,*,#167,.F.);
#137=ORIENTED_EDGE('',*,*,#162,.T.);
#138=ORIENTED_EDGE('',*,*,#174,.T.);
#139=CARTESIAN_POINT('',(0.0,0.0,-185.0));
#140=DIRECTION('',(0.0,0.0,1.0));
#141=DIRECTION('',(1.0,-0.0,0.0));
#142=SURFACE_STYLE_FILL_AREA(#175);
#143=ORIENTED_EDGE('',*,*,#166,.F.);
#144=ORIENTED_EDGE('',*,*,#170,.F.);
#145=ORIENTED_EDGE('',*,*,#168,.T.);
#146=ORIENTED_EDGE('',*,*,#173,.T.);
#147=CARTESIAN_POINT('',(0.0,0.0,185.0));
#148=DIRECTION('',(0.0,0.0,1.0));
#149=DIRECTION('',(-1.0,0.0,0.0));
#150=SURFACE_STYLE_FILL_AREA(#176);
#151=ORIENTED_EDGE('',*,*,#161,.F.);
#152=ORIENTED_EDGE('',*,*,#171,.T.);
#153=ORIENTED_EDGE('',*,*,#163,.T.);
#154=ORIENTED_EDGE('',*,*,#174,.F.);
#155=CARTESIAN_POINT('',(0.0,0.0,185.0));
#156=DIRECTION('',(0.0,0.0,1.0));
#157=DIRECTION('',(-1.0,0.0,0.0));
#158=SURFACE_STYLE_FILL_AREA(#177);
#159=FILL_AREA_STYLE('',(#178));
#160=EDGE_CURVE('NONE',#179,#180,#181,.T.);
#161=EDGE_CURVE('NONE',#180,#182,#183,.T.);
#162=EDGE_CURVE('NONE',#184,#182,#185,.T.);
#163=EDGE_CURVE('NONE',#179,#184,#186,.T.);
#164=FILL_AREA_STYLE('',(#187));
#165=EDGE_CURVE('NONE',#188,#189,#190,.T.);
#166=EDGE_CURVE('NONE',#188,#191,#192,.T.);
#167=EDGE_CURVE('NONE',#191,#193,#194,.T.);
#168=EDGE_CURVE('NONE',#189,#193,#195,.T.);
#169=FILL_AREA_STYLE('',(#196));
#170=EDGE_CURVE('NONE',#189,#188,#197,.T.);
#171=EDGE_CURVE('NONE',#180,#179,#198,.T.);
#172=FILL_AREA_STYLE('',(#199));
#173=EDGE_CURVE('NONE',#193,#191,#200,.T.);
#174=EDGE_CURVE('NONE',#182,#184,#201,.T.);
#175=FILL_AREA_STYLE('',(#202));
#176=FILL_AREA_STYLE('',(#203));
#177=FILL_AREA_STYLE('',(#204));
#178=FILL_AREA_STYLE_COLOUR('',#205);
#179=VERTEX_POINT('NONE',#206);
#180=VERTEX_POINT('NONE',#207);
#181=CIRCLE('',#208,14.0);
#182=VERTEX_POINT('NONE',#209);
#183=LINE('',#210,#211);
#184=VERTEX_POINT('NONE',#212);
#185=CIRCLE('',#213,14.0);
#186=LINE('',#214,#215);
#187=FILL_AREA_STYLE_COLOUR('',#216);
#188=VERTEX_POINT('NONE',#217);
#189=VERTEX_POINT('NONE',#218);
#190=CIRCLE('',#219,15.0);
#191=VERTEX_POINT('NONE',#220);
#192=LINE('',#221,#222);
#193=VERTEX_POINT('NONE',#223);
#194=CIRCLE('',#224,15.0);
#195=LINE('',#225,#226);
#196=FILL_AREA_STYLE_COLOUR('',#227);
#197=CIRCLE('',#228,15.0);
#198=CIRCLE('',#229,14.0);
#199=FILL_AREA_STYLE_COLOUR('',#230);
#200=CIRCLE('',#231,15.0);
#201=CIRCLE('',#232,14.0);
#202=FILL_AREA_STYLE_COLOUR('',#233);
#203=FILL_AREA_STYLE_COLOUR('',#234);
#204=FILL_AREA_STYLE_COLOUR('',#235);
#205=COLOUR_RGB('',0.647058844566345,0.619607865810394,0.588235318660736);
#206=CARTESIAN_POINT('',(-14.0,0.0,185.0));
#207=CARTESIAN_POINT('',(14.0,1.71450551880629E-015,185.0));
#208=AXIS2_PLACEMENT_3D('',#236,#237,#238);
#209=CARTESIAN_POINT('',(14.0,1.71450551880629E-015,-185.0));
#210=CARTESIAN_POINT('',(14.0,1.71450551880629E-015,185.0));
#211=VECTOR('',#239,1000.0);
#212=CARTESIAN_POINT('',(-14.0,0.0,-185.0));
#213=AXIS2_PLACEMENT_3D('',#240,#241,#242);
#214=CARTESIAN_POINT('',(-14.0,0.0,185.0));
#215=VECTOR('',#243,1000.0);
#216=COLOUR_RGB('',0.647058844566345,0.619607865810394,0.588235318660736);
#217=CARTESIAN_POINT('',(15.0,1.83697019872103E-015,185.0));
#218=CARTESIAN_POINT('',(-15.0,0.0,185.0));
#219=AXIS2_PLACEMENT_3D('',#244,#245,#246);
#220=CARTESIAN_POINT('',(15.0,1.83697019872103E-015,-185.0));
#221=CARTESIAN_POINT('',(15.0,1.83697019872103E-015,185.0));
#222=VECTOR('',#247,1000.0);
#223=CARTESIAN_POINT('',(-15.0,0.0,-185.0));
#224=AXIS2_PLACEMENT_3D('',#248,#249,#250);
#225=CARTESIAN_POINT('',(-15.0,0.0,185.0));
#226=VECTOR('',#251,1000.0);
#227=COLOUR_RGB('',0.647058844566345,0.619607865810394,0.588235318660736);
#228=AXIS2_PLACEMENT_3D('',#252,#253,#254);
#229=AXIS2_PLACEMENT_3D('',#255,#256,#257);
#230=COLOUR_RGB('',0.647058844566345,0.619607865810394,0.588235318660736);
#231=AXIS2_PLACEMENT_3D('',#258,#259,#260);
#232=AXIS2_PLACEMENT_3D('',#261,#262,#263);
#233=COLOUR_RGB('',0.647058844566345,0.619607865810394,0.588235318660736);
#234=COLOUR_RGB('',0.647058844566345,0.619607865810394,0.588235318660736);
#235=COLOUR_RGB('',0.647058844566345,0.619607865810394,0.588235318660736);
#236=CARTESIAN_POINT('',(0.0,0.0,185.0));
#237=DIRECTION('',(0.0,0.0,1.0));
#238=DIRECTION('',(1.0,0.0,0.0));
#239=DIRECTION('',(-0.0,-0.0,-1.0));
#240=CARTESIAN_POINT('',(0.0,0.0,-185.0));
#241=DIRECTION('',(0.0,0.0,1.0));
#242=DIRECTION('',(1.0,0.0,0.0));
#243=DIRECTION('',(-0.0,-0.0,-1.0));
#244=CARTESIAN_POINT('',(0.0,0.0,185.0));
#245=DIRECTION('',(0.0,0.0,1.0));
#246=DIRECTION('',(1.0,0.0,0.0));
#247=DIRECTION('',(-0.0,-0.0,-1.0));
#248=CARTESIAN_POINT('',(0.0,0.0,-185.0));
#249=DIRECTION('',(0.0,0.0,1.0));
#250=DIRECTION('',(1.0,0.0,0.0));
#251=DIRECTION('',(-0.0,-0.0,-1.0));
#252=CARTESIAN_POINT('',(0.0,0.0,185.0));
#253=DIRECTION('',(0.0,0.0,1.0));
#254=DIRECTION('',(1.0,0.0,0.0));
#255=CARTESIAN_POINT('',(0.0,0.0,185.0));
#256=DIRECTION('',(0.0,0.0,1.0));
#257=DIRECTION('',(1.0,0.0,0.0));
#258=CARTESIAN_POINT('',(0.0,0.0,-185.0));
#259=DIRECTION('',(0.0,0.0,1.0));
#260=DIRECTION('',(1.0,0.0,0.0));
#261=CARTESIAN_POINT('',(0.0,0.0,-185.0));
#262=DIRECTION('',(0.0,0.0,1.0));
#263=DIRECTION('',(1.0,0.0,0.0));
#264=PRESENTATION_LAYER_ASSIGNMENT('NONE','',(#43));
ENDSEC;
END-ISO-10303-21;
